Led Zeppelin - Houses Of The Holy Chords & Tabs

 

Houses Of The Holy Chords & Tabs

Led Zeppelin Chords & Tabs

Version: 4 Type: Tab 0 ratings
1 star 2 stars 3 stars 4 stars 5 stars
comments

Houses Of The Holy Tab

   
                               HOUSES OF THE HOLY
                           As recorded by Led Zeppelin
                     (From the 1975 Album PHYSICAL GRAFFITI)

Words and Music by Jimmy Page & Robert Plant
Transcribed by www.mikesguitarsite.co.uk

Gtr I (E A D G B E) - 'Jimmy Page - Rhythm w/dist'
Gtr II (E A D G B E) - 'Jimmy Page - Rhythm / Lead w/dist'

 Intro
  Q=120
 4/4
  Gtr I
|---------------|-----------2---2-|---------------|-----------2---2-|
|---------------|-----------2---2-|--------2-2----|-----2-2---2---2-|
|--------2-2----|-----2-2---2---2-|--------2-2----|-----2-2---2---2-|
|--2-2---2-2--2-|-2---2-2---2---2-|--2-2---2-2--2-|-2---2-2---2---2-|
|--3-4-0-0-0--3-|-4-0-0-0---------|--3-4-0-0-0--3-|-4-0-0-0---------|
|---------------|-----------------|---------------|-----------------|
|
| Gtr II
|---------------|----------14--14-|---------------|----------14--14-|
|---------------|----------14--14-|---------------|----------14--14-|
|---------------|----------14--14-|---------------|----------14--14-|
|---------------|-----------------|---------------|-----------------|
|---------------|-----------------|---------------|-----------------|
|---------------|-----------------|---------------|-----------------|


|---------------|-----------2---2---2-|--2--------------|-------------0--||
|--------2-2----|-----2-2---2---2---2-|--2-------2-2----|----------2--0--||
|--------2-2----|-----2-2---2---2---2-|--2-------2-2----|-----2-2--2--1--||
|--2-2---2-2--2-|-2---2-2-------------|----2-----2-2--2-|-----2-2--2--2--||
|--3-4-0-0-0--3-|-4-0-0-0-------------|----3-4-0-0-0--3-|-4-0-0-0--0--2--||
|---------------|---------------------|-----------------|-------------0--||
|
|---------------|----------14--14--14-|-14--------------|----------------||
|---------------|----------14--14--14-|-14--------------|----------------||
|---------------|----------14--14--14-|-14--------------|----------------||
|---------------|---------------------|-----------------|----------------||
|---------------|---------------------|-----------------|----------------||
|---------------|---------------------|-----------------|----------------||


   Verses 1 + 2
||--(0)----(0)-------|-------------|----0--(0)-------|-------------|
||o-(0)----(0)-----3-|--3--3--3----|----0--(0)-----3-|--3--3--3----|
||--(1)----(1)-----2-|--2--4--2--2-|--1------------2-|--2--4--2--2-|
||--(2)----(2)---2-0-|--0--0--0--2-|--2----------2-0-|--0--0--0--2-|
||o-(2)----(2)-4-----|-----------0-|--2--------4-----|-----------0-|
||--(0)----(0)-------|-------------|--0--------------|-------------|
|
||-----------------7-|--5--3--2----|---------------7-|--5--3--2----|
||o----------------8-|--7--3--3----|---------------8-|--7--3--3----|
||-----------------7-|--7--4--2----|---------------7-|--7--4--2----|
||-------------------|-------------|-----------------|-------------|
||o------------------|-------------|-----------------|-------------|
||-------------------|-------------|-----------------|-------------|


|----0--(0)-------|-------------|----0--(0)-------|--------------|
|----0--(0)-----3-|--3--3--3----|----0--(0)-----3-|--3--3--3-----|
|--1------------2-|--2--4--2--2-|--1------------2-|--2--4--2--2--|
|--2----------2-0-|--0--0--0--2-|--2----------2-0-|--0--0--0--2--|
|--2--------4-----|-----------0-|--2--------4-----|-----------0--|
|--0--------------|-------------|--0--------------|--------------|
|
|---------------7-|--5--3--2----|---------------7-|--5--3--2-----|
|---------------8-|--7--3--3----|---------------8-|--7--3--3-----|
|---------------7-|--7--4--2----|---------------7-|--7--4--2-----|
|-----------------|-------------|-----------------|--------------|
|-----------------|-------------|-----------------|--------------|
|-----------------|-------------|-----------------|--------------|


  1.
|---------------|-----------2---2-|
|--------2-2----|-----2-2---2---2-|
|--------2-2----|-----2-2---2---2-|
|--2-----2-2--2-|-----2-2---2---2-|
|--3-4-0-0-0--3-|-4-0-0-0---------|
|---------------|-----------------|
|
|---------------|----------14--14-|
|---------------|----------14--14-|
|---------------|----------14--14-|
|---------------|-----------------|
|---------------|-----------------|
|---------------|-----------------|


|---------------|--------------------------------|
|--------2-2----|--------------------------------|
|--------2-2----|---2-2-4b6==(4)rp2-4p2-4p2------|
|--2-2-2-2-2--2-|-2-2-----------------------4p2--|
|--3-4-0-0-0--3-|-4-0----------------------------|
|---------------|--------------------------------|
|
|---------------|--------------------------------|
|---------------|--------------------------------|
|---------------|--------------------------------|
|---------------|--------------------------------|
|---------------|--------------------------------|
|---------------|--------------------------------|


|----------------|-----------2---2---2-|--2--------------|-------------0---||
|---------2-2----|-----2-2---2---2---2-|--2-------2-2----|-----2-2--2--0--o||
|---------2-2----|---2-2-2---2---2---2-|--2-------2-2----|-----2-2--2--1---||
|---2-2---2-2--2-|---2-2-2---2---2---2-|--2-2-2---2-2--2-|-2---2-2--2--2---||
|-0-3-4-0-0-0--3-|-4---0-0-------------|----3-4-0-0-0--3-|-4-0-0-0--0--2--o||
|----------------|---------------------|-----------------|-------------0---||
|
|----------------|----------14--14--14-|-14--------------|-----------------||
|----------------|----------14--14--14-|-14--------------|----------------o||
|----------------|----------14--14--14-|-14--------------|-----------------||
|----------------|---------------------|-----------------|-----------------||
|----------------|---------------------|-----------------|----------------o||
|----------------|---------------------|-----------------|-----------------||


  2.
|--0-0-0-0-------|---------------|-----------2---2-|
|--0-0-0-0-------|--------2-2----|-----2-2---2---2-|
|--1-1-1-1-----2-|--------2-2----|-----2-2---2---2-|
|--2-2-2-2-2-2-2-|--2-2---2-2--2-|-2-2-2-2---------|
|--2-2-2-2-3-4-0-|--3-4-0-0-0--3-|-4-0-0-0---------|
|--0-0-0-0-------|---------------|-----------------|
|
|----------------|---------------|----------14--14-|
|----------------|---------------|----------14--14-|
|----------------|---------------|----------14--14-|
|----------------|---------------|-----------------|
|----------------|---------------|-----------------|
|----------------|---------------|-----------------|


|---------------|---------2-----------------|-----------------|
|--------2-2----|-----------5p2-------------|---------2-2-----|
|--------2-2----|---2-4b6-------4p2---4p2---|-2-------2-2-----|
|--2-----2-2--2-|---2---------------4-----4-|---------2-2--2--|
|--3-4-0-0-0--3-|-4-------------------------|---3-4-0-0-0--3--|
|---------------|---------------------------|-----------------|


|-----------2---2---2-|--2--------------|-------------0-||
|-----2-2---2---2---2-|--2-------2-2----|-----2-2--2--0-||
|-----2-2---2---2---2-|--2-------2-2----|-----2-2--2--1-||
|-2---2-2-------------|----2-----2-2--2-|-----2-2--2--2-||
|-4-0-0-0-------------|----3-4-0-0-0--3-|-4-0-0-0--0--2-||
|---------------------|-----------------|-------------0-||
|
| Gtr II
|----------14--14--14-|-14--------------|---------------||
|----------14--14--14-|-14--------------|---------------||
|----------14--14--14-|-14--------------|---------------||
|---------------------|-----------------|---------------||
|---------------------|-----------------|---------------||
|---------------------|-----------------|---------------||


   Verses 3 + 4
||--(0)----(0)-------|-------------|----0--(0)-------|-------------|
||o-(0)----(0)-----3-|--3--3--3----|----0--(0)-----3-|--3--3--3----|
||--(1)----(1)-----2-|--2--4--2--2-|--1------------2-|--2--4--2--2-|
||--(2)----(2)---2-0-|--0--0--0--2-|--2----------2-0-|--0--0--0--2-|
||o-(2)----(2)-4-----|-----------0-|--2--------4-----|-----------0-|
||--(0)----(0)-------|-------------|--0--------------|-------------|
|
||-----------------7-|--5--3--2----|---------------7-|--5--3--2----|
||o----------------8-|--7--3--3----|---------------8-|--7--3--3----|
||-----------------7-|--7--4--2----|---------------7-|--7--4--2----|
||-------------------|-------------|-----------------|-------------|
||o------------------|-------------|-----------------|-------------|
||-------------------|-------------|-----------------|-------------|


|----0--(0)-------|-------------|----0--(0)-------|--------------|
|----0--(0)-----3-|--3--3--3----|----0--(0)-----3-|--3--3--3-----|
|--1------------2-|--2--4--2--2-|--1------------2-|--2--4--2--2--|
|--2----------2-0-|--0--0--0--2-|--2----------2-0-|--0--0--0--2--|
|--2--------4-----|-----------0-|--2--------4-----|-----------0--|
|--0--------------|-------------|--0--------------|--------------|
|
|---------------7-|--5--3--2----|---------------7-|--5--3--2-----|
|---------------8-|--7--3--3----|---------------8-|--7--3--3-----|
|---------------7-|--7--4--2----|---------------7-|--7--4--2-----|
|-----------------|-------------|-----------------|--------------|
|-----------------|-------------|-----------------|--------------|
|-----------------|-------------|-----------------|--------------|


  1.
|---------------|-----------2---2-|
|--------2-2----|-----2-2---2---2-|
|--------2-2----|-----2-2---2---2-|
|--2-----2-2--2-|-----2-2---2---2-|
|--3-4-0-0-0--3-|-4-0-0-0---------|
|---------------|-----------------|
|
|---------------|----------14--14-|
|---------------|----------14--14-|
|---------------|----------14--14-|
|---------------|-----------------|
|---------------|-----------------|
|---------------|-----------------|


|---------------|-----------------2---------------|
|--------2-2----|-----------------2-5p2-----------|
|--------2-2----|-----2-4b6==(4)r-------4p2---4p==|
|--2-2-2-2-2--2-|-2---2---------------------4-----|
|--3-4-0-0-0--3-|-4-0-----------------------------|
|---------------|---------------------------------|
|
|---------------|---------------------------------|
|---------------|---------------------------------|
|---------------|---------------------------------|
|---------------|---------------------------------|
|---------------|---------------------------------|
|---------------|---------------------------------|


|----------------|-----------2---2---2-|--2--------------|-------------0---||
|---------2-2----|-----2-2---2---2---2-|--2-------2-2----|-----2-2--2--0--o||
|-2-------2-2----|---2-2-2---2---2---2-|--2-------2-2----|-----2-2--2--1---||
|---------2-2--2-|---2-2-2---2---2---2-|--2-2-2---2-2--2-|-2---2-2--2--2---||
|---3-4-0------3-|-4---0-0-------------|----3-4-0-0-0--3-|-4-0-0-0--0--2--o||
|----------------|---------------------|-----------------|-------------0---||
|
|----------------|----------14--14--14-|-14--------------|-----------------||
|----------------|----------14--14--14-|-14--------------|----------------o||
|----------------|----------14--14--14-|-14--------------|-----------------||
|----------------|---------------------|-----------------|-----------------||
|----------------|---------------------|-----------------|----------------o||
|----------------|---------------------|-----------------|-----------------||


  2.
|--0-0-0-0-------|---------------|-----------2---2-|
|--0-0-0-0-------|--------2-2----|-----2-2---2---2-|
|--1-1-1-1-----2-|--------2-2----|-----2-2---2---2-|
|--2-2-2-2-2-2-2-|--2-2---2-2--2-|-2-2-2-2---------|
|--2-2-2-2-3-4-0-|--3-4-0-0-0--3-|-4-0-0-0---------|
|--0-0-0-0-------|---------------|-----------------|
|
|----------------|---------------|----------14--14-|
|----------------|---------------|----------14--14-|
|----------------|---------------|----------14--14-|
|----------------|---------------|-----------------|
|----------------|---------------|-----------------|
|----------------|---------------|-----------------|


|----------------2-|---------------------------------|----------------|
|------2-2-2-------|-5p2-----------------------------|---------2-2----|
|------2-2-2-4b6---|-----4p2---4p2---2---------------|---------2-2----|
|--2-2-2-2-2-------|---------4-----4---4p2---2-4p2---|---2-2---2-2--2-|
|--3-4-0-----------|-----------------------4-------4-|-0-3-4-0------3-|
|------------------|---------------------------------|----------------|


|-----------2---2---2-|--2--------------|-------------0-||
|-----2-2---2---2---2-|--2-------2-2----|-----2-2--2--0-||
|-----2-2---2---2---2-|--2-------2-2----|-----2-2--2--1-||
|-2---2-2-------------|----2-----2-2--2-|-----2-2--2--2-||
|-4-0-0-0-------------|----3-4-0-0-0--3-|-4-0-0-0--0--2-||
|---------------------|-----------------|-------------0-||
|
| Gtr II
|----------14--14--14-|-14--------------|---------------||
|----------14--14--14-|-14--------------|---------------||
|----------14--14--14-|-14--------------|---------------||
|---------------------|-----------------|---------------||
|---------------------|-----------------|---------------||
|---------------------|-----------------|---------------||

[ Tab from: http://www.guitartabs.cc/tabs/l/led_zeppelin/houses_of_the_holy_tab_ver_4.html ]
   Verses 5 + 6
||--(0)----(0)-------|-------------|----0--(0)-------|-------------|
||o-(0)----(0)-----3-|--3--3--3----|----0--(0)-----3-|--3--3--3----|
||--(1)----(1)-----2-|--2--4--2--2-|--1------------2-|--2--4--2--2-|
||--(2)----(2)---2-0-|--0--0--0--2-|--2----------2-0-|--0--0--0--2-|
||o-(2)----(2)-4-----|-----------0-|--2--------4-----|-----------0-|
||--(0)----(0)-------|-------------|--0--------------|-------------|
|
||-----------------7-|--5--3--2----|---------------7-|--5--3--2----|
||o----------------8-|--7--3--3----|---------------8-|--7--3--3----|
||-----------------7-|--7--4--2----|---------------7-|--7--4--2----|
||-------------------|-------------|-----------------|-------------|
||o------------------|-------------|-----------------|-------------|
||-------------------|-------------|-----------------|-------------|


|----0--(0)-------|-------------|----0--(0)-------|--------------|
|----0--(0)-----3-|--3--3--3----|----0--(0)-----3-|--3--3--3-----|
|--1------------2-|--2--4--2--2-|--1------------2-|--2--4--2--2--|
|--2----------2-0-|--0--0--0--2-|--2----------2-0-|--0--0--0--2--|
|--2--------4-----|-----------0-|--2--------4-----|-----------0--|
|--0--------------|-------------|--0--------------|--------------|
|
|---------------7-|--5--3--2----|---------------7-|--5--3--2-----|
|---------------8-|--7--3--3----|---------------8-|--7--3--3-----|
|---------------7-|--7--4--2----|---------------7-|--7--4--2-----|
|-----------------|-------------|-----------------|--------------|
|-----------------|-------------|-----------------|--------------|
|-----------------|-------------|-----------------|--------------|


  1.
|---------------|-----------2---2-|---------------|----------------------------|
|--------2-2----|-----2-2---2---2-|--------2-2----|----------------------------|
|--------2-2----|-----2-2---2---2-|--------2-2----|---2-4b6-2-4p2-4p2---4p2----|
|--2-----2-2--2-|-----2-2---2---2-|--2-2-2-2-2--2-|-2-2---------------4-----4--|
|--3-4-0-0-0--3-|-4-0-0-0---------|--3-4-0-0-0--3-|-4-0------------------------|
|---------------|-----------------|---------------|----------------------------|
|
|---------------|----------14--14-|---------------|----------------------------|
|---------------|----------14--14-|---------------|----------------------------|
|---------------|----------14--14-|---------------|----------------------------|
|---------------|-----------------|---------------|----------------------------|
|---------------|-----------------|---------------|----------------------------|
|---------------|-----------------|---------------|----------------------------|


|----------------|-----------2---2---2-|
|---------2-2----|-----2-2---2---2---2-|
|-2-------2-2----|---2-2-2---2---2---2-|
|---2-2---2-2--2-|---2-2-2---2---2---2-|
|---3-4-0------3-|-4---0-0-------------|
|----------------|---------------------|
|
|----------------|----------14--14--14-|
|----------------|----------14--14--14-|
|----------------|----------14--14--14-|
|----------------|---------------------|
|----------------|---------------------|
|----------------|---------------------|


                                      2.
|--2--------------|-------------0--||---0-0-0-0---------||
|--2-------2-2----|-----2-2--2--0-o||---0-0-0-0---------||
|--2-------2-2----|-----2-2--2--1--||---1-1-1-1-----2---||
|--2-2-2---2-2--2-|-2---2-2--2--2--||---2-2-2-2-2-2-2---||
|----3-4-0-0-0--3-|-4-0-0-0--0--2-o||---2-2-2-2-3-4-0---||
|-----------------|-------------0--||---0-0-0-0---------||
|
|-14--------------|----------------||-------------------||
|-14--------------|---------------o||-------------------||
|-14--------------|----------------||-------------------||
|-----------------|----------------||-------------------||
|-----------------|---------------o||-------------------||
|-----------------|----------------||-------------------||


|---------------|-----------2---2-|---------------|----------2--2--|
|--------2-2----|-----2-2---2---2-|--------2-2----|-----2-2--2--2--|
|--------2-2----|-----2-2---2---2-|------2-2-2----|-----2-2--2--2--|
|--2---2-2-2--2-|-2---2-2---2---2-|--2-2-2-2-2--2-|-2-2-2-2--------|
|--3-4-0-0-0--3-|-4-0-0-0---------|--3-4-0-0-0--3-|-4-0-0-0--------|
|---------------|-----------------|---------------|----------------|
|
|---------------|----------14--14-|---------------|----------------|
|---------------|----------14--14-|---------------|----------------|
|---------------|----------14--14-|---------------|----------------|
|---------------|-----------------|---------------|----------------|
|---------------|-----------------|---------------|----------------|
|---------------|-----------------|---------------|----------------|


|---------------|----------2--2-|---------------|----------2--2--2--||
|--------2-2----|----------2--2-|---------------|-----2-2--2--2--2--||
|------2-2-2----|-----2-2--2--2-|--------2-2----|---2-2-2--2--2--2--||
|--2-2-2-2-2--2-|-2-2-2-2-------|--2---2-2-2--2-|-2-2-2-2--2--2--2--||
|--3-4-0-0-0--3-|-4-0-0-0-------|--3-4-0-0-0--3-|-4-0-0-0-----------||
|---------------|---------------|---------------|-------------------||


 Outro - Guitar Solo
|--------------------|-------------------2-----2---|
|----------2--2------|-------2---2-------2-----2---|
|----------2--2------|-------2---2-------2-----2---|
|---2---2--2--2----2-|-2-----2---2-------2-----2---|
|---3-4-0--0--0----3-|-4---0-0---0-----------------|
|--------------------|-----------------------------|
|
| Gtr II
|--------------------|-----------------------------|
|--------------------|-----------------------------|
|-------------7b9----|-7b9---7b9---5-7p5---7p5-7p5-|
|--------------------|-----------------------------|
|-0-------(0)--------|-----------------------------|
|--------------------|-----------------------------|


|---------------------------|---------------------2-------2--|
|------------2--2-----------|----------2----2-----2-------2--|
|---------2--2--2-----------|----------2----2-----2-------2--|
|---2---2-2--2--2-------2---|-2---2----2----2----------------|
|---3---4-0--0--0-------3---|-4---0----0----0----------------|
|---------------------------|--------------------------------|
|
|       ~~~~~~~~
|-------------------5-------|--------------------------------|
|---------------------8p5---|--------------------------------|
|---------------7b9-------8s|=7p5-7p5-(5)-7p5-5-7p5---5h7----|
|-5-7-7-5---(5)-------------|-----------------------7--------|
|---------------------------|--------------------------------|
|---------------------------|--------------------------------|


|-------------------------------|-------------2-------2--------|
|---------------2---2-----------|-------------2-------2--------|
|-----------2---2---2-----------|-------2-2---2-------2--------|
|-----2---2-2---2---2-------2---|-2-2---2-2--------------------|
|-----3---4-0---0---0-------3---|-4-0---0-0--------------------|
|-------------------------------|------------------------------|
|
|-------------------------------|------------------------------|
|-------------------------------|------------------------------|
|-------------------------------|-------------x-----2-4b5==(4)-|
|-7p5---7p5-5p0-----------------|---------------2-4------------|
|---------------5-5p3p0-2h3---3s|=4-3s4p0-0-0------------------|
|-------------------------------|------------------------------|


|-------------------------------|-----------------2-------2-----2--|
|-------------------------------|-------2-2-------2-------2-----2--|
|------------------2----2-------|-----2-2-2-------2-------2-----2--|
|------2------2----2----2-----2-|-2---2-2-2-------2-------2-----2--|
|------3-4----0----0----0-----3-|-4---0-0-0------------------------|
|-------------------------------|----------------------------------|
|
|-------------------------------|-----------------------------2----|
|-------------------------------|-------------------------------5p=|
|-(4)r---4b6====4r(4)p2---4p2-0-|-2p0h2---4p2-(2)---4b6==(4)r------|
|-------------------------------|----------------------------------|
|-------------------------------|----------------------------------|
|-------------------------------|----------------------------------|


|-------------------------------|---------------------2-------------2-|
|-----------------2-2-----------|---------2---2-------2-------------2-|
|-----------------2-2-----------|---------2---2-------2-------------2-|
|---2-----2-------2-2-------2---|-2-------2---2-------2-------------2-|
|---3-4---0-------0-0-------3---|-4---0---0---0-----------------------|
|-------------------------------|-------------------------------------|
|
|-------------------------------|-----------------------/10-(10)-9-10-|
|-0-------------------------8-5-|-------------------------------------|
|---4-4p2-4-4b4.5p2-4-5-6-------|-7p5---7p5---8-7p5---5---------------|
|-------------------------7-----|-----------7-------7-----------------|
|-------------------------------|-------------------------------------|
|-------------------------------|-------------------------------------|


|-----------------------------------|------------------2----2----|
|---------------------2--2----------|-------2--2-------2----2----|
|---------------2-----2--2----------|-------2--2-------2----2----|
|-------2----2--2-----2--2-----2----|-2--2--2--2-----------------|
|-------3----4--0-----0--0-----3----|-4--0--0--0-----------------|
|-----------------------------------|----------------------------|
|
|                                                    ~~~~~~~
|-10p9------------------------------|----------------------------|
|------10------------10----10-12b14-|---12-10----12-10---10------|
|---------9-(9)-9s11----11----------|---------12------------8-8--|
|-----------------------------------|----------------------------|
|-----------------------------------|----------------------------|
|-----------------------------------|----------------------------|


|----------------------------|---------------------------------2-----------2-|
|---------------2---2--------|---------------------------------2-----------2-|
|-----------2---2---2--------|---------2----2------------------2-----------2-|
|-------2-2-2---2---2----2---|-2-2-----2----2--------------------------------|
|-------3-4-0---0---0----3---|-4-0-----0----0--------------------------------|
|----------------------------|-----------------------------------------------|
|
|----------------------------|-----------------------------------------------|
|-------8-----8-8-8---0-/8-8-|-8------10-10-------12pb13r(12)p10----12----10-|
|-8s9-9-----8-9-9-9-----/9-9-|-9-9s11---------11-----------------11----11----|
|----------------------------|-----------------------------------------------|
|----------------------------|-----------------------------------------------|
|----------------------------|-----------------------------------------------|


|-----------------------------|
|-----------------------------|
|-----------------2-2---------|
|-----2-------2---2-2-----2---|
|-----3--4----0---0-0-----3---|
|-----------------------------|
|
|     ~~~~~~      ~         ~
|-----------------------------|
|-----8-(8)-8-----8-------8-8-|
|-8-9---------8s9-----8s9-----|
|-----------------------------|
|-----------------------------|
|-----------------------------|


|----------------------------2--------2-----2-|
|-----------2----2-----------2--------2-----2-|
|-----2-----2----2-----------2--------2-----2-|
|--2--2-----2----2-----------2--------2-----2-|
|--4--0-----0----0----------------------------|
|---------------------------------------------|
|
|  ~~~         ~~
|---------------------------------------------|
|-(8)------10-10---12b14-12-10----12----10-12-|
|-----9-11---------------------11----11-------|
|---------------------------------------------|
|---------------------------------------------|
|---------------------------------------------|


|---------------------------|-----------------------2--2-*|
|------------2--2-----------|-----------2-----2-----2--2-*|
|------------2--2-----------|-----------2-----2-----2--2-*|
|----2----2--2--2-----2-----|---2-------2-----2-----2--2-*|
|----3-4--0--0--0-----3-----|---4----0--0-----0----------*|
|---------------------------|----------------------------*|
|
|-----------14--------------|----------------------------*|
|-10-----14----17-14--------|----------------------------*|
|--------------------16b18==|=(16)r-16-14----16p14-------*|
|---------------------------|-------------16-------------*|
|---------------------------|----------------------------*|
|---------------------------|----------------------------*|


Tablature Legend
----------------
 h   - hammer-on
 p   - pull-off
 b   - bend
 pb  - pre-bend
 r   - bend release (if no number after the r, then release immediately)
 /\  - slide into or out of (from/to "nowhere")
 s   - legato slide
 S   - shift slide
  - natural harmonic
[n]  - artificial harmonic
n(n) - tapped harmonic
 ~   - vibrato
 tr  - trill
 T   - tap
 TP  - trem. picking
 PM  - palm muting
\n/  - tremolo bar dip; n = amount to dip
 \n  - tremolo bar down
 n/  - tremolo bar up
/n\  - tremolo bar inverted dip
 =   - hold bend; also acts as connecting device for hammers/pulls
 <>  - volume swell (louder/softer)
 x   - on rhythm slash represents muted slash
 o   - on rhythm slash represents single note slash

Misc Legend
-----------
 |  - bar
||  - double bar
||o - repeat start
o|| - repeat end
*|  - double bar (ending)
 :  - bar (freetime)
 $  - Segno
 &  - Coda
Tempo markers -  = BPM(8/16=s8/s16), where s8 = swing 8ths, s16 = swing 16ths


***************************************************************************************
* Generated using Power Tab Editor by Brad Larsen - http://powertab.guitarnetwork.org *
***************************************************************************************
Comments