Led Zeppelin - Houses Of The Holy Chords & Tabs

 

Houses Of The Holy Chords & Tabs

Led Zeppelin Chords & Tabs

Version: 2 Type: Tab 0 ratings
1 star 2 stars 3 stars 4 stars 5 stars
comments

Houses Of The Holy Tab

	Led Zeppelin
	"Houses of the Holy"
	Physical Graffiti
	Swan Song 1975



Riff 1
======
e:---------------------------14---14--
B:-------2-2---------2-2-----14---14--
G:-------2-2---------2-2-----14---14--
D:-------2-2---------2-2-------------- x2
A:-3-4-0-------3-4-0------------------
E:------------------------------------
|                                    |
e:-------------------------14-14-1414-
B:-------2-2---------2-2---14-14-1414-
G:-------2-2---------2-2---14-14-1414-
D:-------2-2---------2-2--------------
A:-3-4-0-------3-4-0------------------
E:------------------------------------
|                                    |
e:-------------------------0--0-------
B:-------2-2---------2-2---2--0-------
G:-------2-2---------2-2---2--1-------
D:-------2-2---------2-2---2--2-----2-
A:-3-4-0-------3-4-0-------0--2---4---
E:------------------------------------

[ Tab from: http://www.guitartabs.cc/tabs/l/led_zeppelin/houses_of_the_holy_tab_ver_2.html ]
Riff 2
======
e:-3--2--3--2--0--0-0-------
B:-3--3--3--3--2--0-0-------
G:-4--2--4--2--2--1-1-------
D:-0--0--0--0--2--2-2-----2- x3
A:-------------0--2-2---4---
E:--------------------------
|                |
e:-3--2--3--2--0--
B:-3--3--3--3--2--
G:-0--2--0--2--2--
D:-0--0--0--0--2--
A:----------------
E:----------------


Chorus Fills
============
Fill 1
e:--------------------------
B:--------------------------
G:-4b6b4--2-4-2-4-2---------
D:------------------4-2-----
A:----------------------0---
E:--------------------------

Fill 2
e:------2-0-------------------
B:----------2-0---------------
G:-4b6----------2---4-2---2---
D:----------------4-----4-----
A:----------------------------
E:----------------------------

Fill 3
e:------2-0---------------
B:----------2-0-----------
G:-4b6----------2---4-2---
D:----------------4-------
A:------------------------
E:------------------------

Fill 4
e:------2-0-----------------------------------
B:----------2-0-------------------------------
G:-4b6----------2---4-2---2-4-2---------------
D:----------------4-----4-------4-2-4-2-------
A:--------------------------------------4-0---
E:--------------------------------------------

Fill 5
e:------------------------------
B:------------------------------
G:-4b6b4--2-4-2-4-2---4-2---2---
D:------------------4-----4-----
A:------------------------------
E:------------------------------
Comments