Led Zeppelin - Houses Of The Holy Chords & Tabs

 

Houses Of The Holy Chords & Tabs

Led Zeppelin Chords & Tabs

Version: 4 Type: Bass Tab 0 ratings
1 star 2 stars 3 stars 4 stars 5 stars
comments

Houses Of The Holy Bass Tab

Band: Led Zeppelin
Album: Houses of the Holy
Song: Houses of the Holy

Houses of the Holy was the first single
off of the 5th album "Houses of the Holy"
by Led Zeppelin. The song was also featured
on other CD's of theres.

Sounds/Effects
|-------------|
 R = Rest
 * = Let Ring
|-------------|

    Tip:I strongly suggest to
        play along to the song
        just to get the feel &
        tempo

 -0:02-                          -0:08-
   |                               |
G|-------------------------------|-------------------------------|
D|-7R-7R------------------7R-7R--|------------------7R-7R-07R----|
A|-------340-0-0--340-0-0--------|-340-0-0--340-0-0--------------|
E|-------------------------------|-------------------------------|

 -0:11-                   -0:16-          -0:21-
   |                        |                |
G|------------------------|----------------|-----------------|
D|------------------7-7*--|----------------|-----------------|
A|-340-0-0--340-0---------|-34-3-4-3-4-3-00|-34-3-4-3-4-3-00-|
E|------------------------|----------------|-----------------|

 -0:25-            -0:28-           -0:30-
   |                 |                |
G|-----------------|----------------|-------------------------|
D|-----------------|----------------|------------------7R-7R--|
A|-34-3-4-3-4-3-00-|-34-3-4-3-4-3-0-|-340-0-0--340-0-0--------|
E|-----------------|----------------|-------------------------|

 -0:35-                  -0:39-                   -0:43-
   |                        |                        |
G|------------------------|------------------------|----------------------|
D|------------------7R-7R-|------------------7R-7R-|------------------7-7*|
A|-340-0-0--340-0-0-------|-340-0-0--340-0-0-------|-340-0-0--340-0-0-----|
E|------------------------|------------------------|----------------------|

 -0:49-           -0:51-            -0:56-             -1:00-
   |                 |                 |                 |
G|-----------------|-----------------|-----------------|-------------------|
D|-----------------|-----------------|-----------------|-------------------|
A|-34-3-4-3-4-3-00-|-34-3-4-3-4-3-00-|-34-3-4-3-4-3-00-|-34-3-4-3-4-3-00000|
E|-----------------|-----------------|-----------------|-------------------|

 -1:04-                   -1:08-                   -1:12-
   |                        |                        |
G|-----------------------|-----------------------|--------------------------|
D|------------------7R-7R|------------------7R-7R|-----------------7R-7R-07R|
A|-340-0-0--340-0-0------|-340-0-0--340-0-0------|340-0-0--340-0-0----------|
E|-----------------------|-----------------------|--------------------------|

 -1:16-                  -1:20-            -1:25-
   |                       |                 |
G|-----------------------|-----------------|-----------------|
D|------------------7-7*-|-----------------|-----------------|
A|-340-0-0--340-0-0------|-34-3-4-3-4-3-00-|-34-3-4-3-4-3-00-|
E|-----------------------|-----------------|-----------------|

 -1:29-            -1:33-            -1:36-
   |                 |                 |
G|-----------------|-----------------|-------------------------|
D|-----------------|-----------------|------------------7R-7R--|
A|-34-3-4-3-4-3-00-|-34-3-4-3-4-3-00-|-340-0-0--340-0-0--------|
E|-----------------|-----------------|-------------------------|

 -1:40-                   -1:44-                   -1:48-
   |                        |                        |
G|------------------------|------------------------|------------------------|
D|------------------7R-7R-|------------------7R-7R-|------------------7R-7R-|
A|-340-0-0--340-0-0-------|-340-0-0--340-0-0-------|-340-0-0--340-0-0-------|
E|------------------------|------------------------|------------------------|
[ Tab from: http://www.guitartabs.cc/tabs/l/led_zeppelin/houses_of_the_holy_btab_ver_4.html ]
 -1:53-            -1:56-            -2:00-            -2:04-
   |                 |                 |                 |
G|-----------------|-----------------|-----------------|--------------------|
D|-----------------|-----------------|-----------------|--------------------|
A|-34-3-4-3-4-3-00-|-34-3-4-3-4-3-00-|-34-3-4-3-4-3-00-|-34-3-4-3-4-3-00000-|
E|-----------------|-----------------|-----------------|--------------------|

 -2:08-                   -2:12-                    -2:16-
   |                        |                         |
G|------------------------|-------------------------|-----------------------|
D|------------------7R-7R-|------------------7R-7R--|------------------7R-7R|
A|-340-0-0--340-0-0-------|-340-0-0--340-0-0--------|-340-0-0--340-0-0------|
E|------------------------|-------------------------|-----------------------|

-2:20-                   -2:25-            -2:29-
  |                        |                 |
G|-----------------------|-----------------|-----------------|
D|------------------7-7*-|-----------------|-----------------|
A|-340-0-0--340-0-0------|-34-3-4-3-4-3-00-|-34-3-4-3-4-3-00-|
E|-----------------------|-----------------|-----------------|

 -2:33-            -2:37-            -2:39-
   |                 |                 |
G|-----------------|-----------------|------------------------|
D|-----------------|-----------------|------------------7R-7R-|
A|-34-3-4-3-4-3-00-|-34-3-4-3-4-3-00-|-340-0-0--340-0-0-------|
E|-----------------|-----------------|------------------------|

 -2:44-                   -2:48-                   -2:51-
   |                        |                        |
G|------------------------|------------------------|-----------------------|
D|------------------7R-7R-|------------------7R-7R-|------------------7-7*-|
A|-340-0-0--340-0-0-------|-340-0-0--340-0-0-------|-340-0-0--340-0-0------|
E|------------------------|------------------------|-----------------------|

 -2:56-            -3:00-            -3:04-            -3:08- 
   |                 |                 |                 |
G|-----------------|-----------------|-----------------|--------------------|
D|-----------------|-----------------|-----------------|--------------------|
A|-34-3-4-3-4-3-00-|-34-3-4-3-4-3-00-|-34-3-4-3-4-3-00-|-34-3-4-3-4-3-00000-|
E|-----------------|-----------------|-----------------|--------------------|

 -3:12-                   -3:16-                   -3:20-
   |                        |                        |
G|------------------------|------------------------|------------------------|
D|------------------7R-7R-|------------------7R-7R-|------------------7R-7R-|
A|-340-0-0--340-0-0-------|-340-0-0--340-0-0-------|-340-0-0--340-0-0-------|
E|------------------------|------------------------|------------------------|

 -3:24-                     -3:28-                  -3:32-
   |                          |                       |
G|---------------------------|-----------------------|----------------------|
D|------------------7R-7R-07R|-----------------7R-7R-|-----------------7R-7R|
A|-340-0-0--340-0-0----------|340-0-0--340-0-0-------|340-0-0--340-0-0------|
E|---------------------------|-----------------------|----------------------|

 -3:36-                   -3:40-                   -3:44-
   |                        |                        |
G|------------------------|------------------------|------------------------|
D|------------------7R-7R-|------------------7R-7R-|------------------7R-7R-|
A|-340-0-0--340-0-0-------|-340-0-0--340-0-0-------|-340-0-0--340-0-0-------|
E|------------------------|------------------------|------------------------|

 -3:47-                   -3:51-                   -3:54-
   |                        |                        |
G|------------------------|------------------------|------------------------|
D|------------------7R-7R-|------------------7R-7R-|------------------7R-7R-|
A|-340-0-0--340-0-0-------|-340-0-0--340-0-0-------|-340-0-0--340-0-0-------|
E|------------------------|------------------------|------------------------|

 -3:58-
   |
G|------------------------|
D|------------------7R-7R-|
A|-340-0-0--340-0-0-------|
E|------------------------|

That's All. Enjoy, and please Rate
Comments