Led Zeppelin - Friends Chords & Tabs

 

Friends Chords & Tabs

Led Zeppelin Chords & Tabs

Version: 1 Type: Bass Tab 0 ratings
1 star 2 stars 3 stars 4 stars 5 stars
comments

Friends Bass Tab

Friends - Led Zeppelin

"double swing" beat
G|----------------|----------------|----------------|----------------|
D|----------------|----------------|----------------|----------------|
A|----------------|----------------|----------------|-------------333|
E|----------------|----------------|----------------|----------------|

G|----------------|----------------|----------------|----------------|
D|----------------|----------------|----------------|----------------|
A|3-------------33|3-------------33|3-------------33|3-------------33|
E|----------------|----------------|----------------|----------------|

  11/8 time
G|----------------------|
D|----------------------|
A|3--6--5--8--7--10-9333|
E|----------------------|

  4/4 tme
G|----------------|----------------|----------------|----------------|
D|----------------|----------------|----------------|----------------|
A|3-------------33|3-------------33|3-------------33|3-------------33|
E|----------------|----------------|----------------|----------------|

  11/8 time
G|----------------------|
D|----------------------|
A|3--6--5--8--7--10-9333|
E|----------------------|

  4/4 time
G|----------------|----------------|----------------|----------------|
D|----------------|----------------|----------------|----------------|
A|3-----------10--|9-----------10--|12----------7---|9-----------4---|
E|----------------|----------------|----------------|----------------|

G|----------------|----------------|----------------|----------------|
D|----------------|----------------|----------------|----------------|
A|3-----------10--|9-----------10--|12----------7---|9-----------4---|
E|----------------|----------------|----------------|----------------|

G|----------------|----------------|----------------|----------------|
D|----------------|----------------|----------------|----------------|
A|3-----------10--|9-----------10--|12--14------7---|9------------333|
E|----------------|----------------|----------------|----------------|

G|----------------|----------------|----------------|----------------|
D|----------------|----------------|----------------|----------------|
A|3-------------33|3-------------33|3-------------33|3-------------33|
E|----------------|----------------|----------------|----------------|

11/8 time
G|----------------------|
D|----------------------|
A|3--6--5--8--7--10-9333|
E|----------------------|

  4/4 time
G|----------------|----------------|----------------|----------------|
D|----------------|----------------|----------------|----------------|
A|3-------------33|3-------------33|3-------------33|3-------------33|
E|----------------|----------------|----------------|----------------|

11/8 time
G|----------------------|
D|----------------------|
A|3--6--5--8--7--10-9333|
E|----------------------|
[ Tab from: http://www.guitartabs.cc/tabs/l/led_zeppelin/friends_btab.html ]
  4/4 time
G|----------------|----------------|----------------|----------------|
D|----------------|----------------|----------------|----------------|
A|3-----------10--|9-----------10--|12----------7---|9-----------4---|
E|----------------|----------------|----------------|----------------|

G|----------------|----------------|----------------|----------------|
D|----------------|----------------|----------------|----------------|
A|3-----------10--|9-----------10--|12----------7---|9-----------4---|
E|----------------|----------------|----------------|----------------|

G|----------------|----------------|----------------|----------------|
D|----------------|----------------|----------------|----------------|
A|3-----------10--|9-----------10--|12--14------7---|9------------333|
E|----------------|----------------|----------------|----------------|

G|----------------|----------------|----------------|----------------|
D|----------------|----------------|----------------|----------------|
A|3-------------33|3-------------33|3-------------33|3-------------33|
E|----------------|----------------|----------------|----------------|

11/8 time
G|----------------------|
D|----------------------|
A|3--6--5--8--7--10-9333|
E|----------------------|

  4/4 time
G|----------------|----------------|----------------|----------------|
D|----------------|----------------|----------------|----------------|
A|3-------------33|3-------------33|3-------------33|3-------------33|
E|----------------|----------------|----------------|----------------|

11/8 time
G|----------------------|
D|----------------------|
A|3--6--5--8--7--10-9333|
E|----------------------|

  4/4 time
G|----------------|----------------|----------------|----------------|
D|----------------|----------------|----------------|----------------|
A|3---------------|----------------|3---------------|----------------|
E|----------------|----------------|----------------|----------------|

G|----------------|----------------|----------------|----------------|
D|----------------|----------------|----------------|----------------|
A|3---------------|----------------|3---------------|----------------|
E|----------------|----------------|----------------|----------------|

G|----------------|----------------|----------------|----------------|
D|----------------|----------------|----------------|----------------|
A|3---------------|----------------|3---------------|----------------|
E|----------------|----------------|----------------|----------------|

G|----------------|----------------|----------------|----------------|
D|----------------|----------------|----------------|----------------|
A|3---------------|----------------|3---------------|----------------|
E|----------------|----------------|----------------|----------------|

G|----------------|----------------|----------------|----------------|
D|----------------|----------------|----------------|----------------|
A|3---------------|----------------|3---------------|----------------|
E|----------------|----------------|----------------|----------------|


Comments