Led Zeppelin - Dyer Maker Chords & Tabs

 

Dyer Maker Chords & Tabs

Led Zeppelin Chords & Tabs

Version: 1 Type: Bass Tab 0 ratings
1 star 2 stars 3 stars 4 stars 5 stars
comments

Dyer Maker Bass Tab

Led Zeppelin: D'yer Mak'er
Album : Houses of the Holy

Transcribed by Tiparraco Sevillano (ole mis huevos!)
E-mail: tresw@email.com


Main Riff:

G|---------------------------|-----------------------|
D|-------2-3-5---------------|-----------------------|
A|-3--3---------0--0---0-3-2-|-----------------------|
E|---------------------------|-1--1-----3-3-3-3--3-5-|


Second Part:
[ Tab from: http://www.guitartabs.cc/tabs/l/led_zeppelin/dyer_maker_btab.html ]
G|--------------------------|-------------------------|
D|--------------------------|-------------------------|  
A|--------------------------|-------------------------|   X3
E|--5-5---5-5----5-5---5-5--|--3-3---3-3----3-3---3-3-|


G|----------|----------|
D|----------|----------|
A|----------|----------|
E|--1-------|--3-------|It's easy
and rithmic
and sounds cool

Led Zeppelin rulez!!!
Comments