Led Zeppelin - Dazed And Confused Chords & Tabs

 

Dazed And Confused Chords & Tabs

Led Zeppelin Chords & Tabs

Version: 8 Type: Tab 0 ratings
1 star 2 stars 3 stars 4 stars 5 stars
comments

Dazed And Confused Tab

Led zeppelin - Dazed and confused

Intro
e|--------------------------------------|
B|--------------------------------------|
G|--------------------------------------|
D|---------5-4-3-2----------------------|
A|-------------------------5-4-3-2-1----|
E|--0----------------0------------------|

e|---------------------------------------------------------------------------|
B|---------------------------------------------------------------------------|
G|---------------------------------------------------------------------------|
D|---2---12--11--10--9-9--2--------------------------------------------------|x2
A|---2---10--9---8---7-7--2--12--11--10--9-9---------------------------------|
E|---0--------------------0--10--9---8---7-7---------------------------------|

|---------------------------------------------------------------------|-------|
B|--------------------------------------------------------------------|-------|
G|--------------------------------------------------------------------|-------|
D|------------7h9-----------------7h9----------------7h9-------------2|-2-----|
A|---9-9--7h9-----7h9--9-9-9--7h9-----7h9-9-9-9--7h9-----7h9--9-9-9--2|-2-----|
E|---7-7---------------7-7-7--------------7-7-7---------------7-7-7--0|-0-----|

Solo:

e--------------------------------------------------|
B--------------------------------------------------|
G--------------12------------------------12-14-12--| this is played twice
D--------12-14----14-12------------12-14-----------|
A--12-14----------------14---12-14-----------------|
E--------------------------------------------------|

Then

e--------------------------------------------------|
B--15--14--12--10--8--------7-------5--------------|
G------------------10^(12)r-9^(10)r-7^(9)r---------|
D--------------------------------------------------|
A--------------------------------------------------|
E--------------------------------------------------|


e--------------------------------------------------|
B---8--------7-------3------2----------------------|
G---10^(12)r-9^(10)r-5^(7)r-4^(6)------------------|
D--------------------------------------------------|
A--------------------------------------------------|
E--------------------------------------------------|

e--------------------------------------------------|
B-------12h15-------12h15-------12h15-------12h15--|
G--12h14------12h14-------12h14-------12h14--------|
D--------------------------------------------------|
A--------------------------------------------------|
E--------------------------------------------------|

e--15p14p12-15p14p12-15p14p12-15p14p12-15p14p12----|
B--------------------------------------------------|
G--------------------------------------------------|
D--------------------------------------------------|
A--------------------------------------------------|
E--------------------------------------------------|


e-12h15^(17)r-15-12h15p12----------------------------------------------------|
B------------------------15^(17)r-15-12h15p12--------------------------------|
G--------------------------------------------14^(16)r-14-12h14p12------------|
D----------------------------------------------------------------11-12-14-12-|
A----------------------------------------------------------------------------|
E----------------------------------------------------------------------------|
[ Tab from: http://www.guitartabs.cc/tabs/l/led_zeppelin/dazed_and_confused_tab_ver_8.html ]
e------------------------------------------------------------------------------|
B------------------------------------------------------------------------------|
G------------------------------------------------------------------------------|
D14-14^(16)-14-12-11-12--------------------------------------------------------|
A----------------------14p12p10-12-12^(14)r10-12-12^(14)r10-12-10-12-10-12^(14)|
E------------------------------------------------------------------------------|

e---15p14p12-15p14p12-15p14p12-15p14p12-15p14p12-15p14p12-15p14p12-15-15^(17)-|
B-----------------------------------------------------------------------------|
G-----------------------------------------------------------------------------|
D-----------------------------------------------------------------------------|
A-10--------------------------------------------------------------------------|
E-----------------------------------------------------------------------------|

e--15^(17)r-15-12-10-12---------------------------------------------------|
B----------------------12^(14)r-10-8-7h8h10-8-7---------------7-----------|
G-----------------------------------------------9p7-------7-9-------------|
D---------------------------------------------------9-7-9----------7-5----|
A---------------------------------------------------------------5-7-------|
E-------------------------------------------------------------------------|

e--15-15-15-15h12-----12-12--|
B----------------15----------|
G----------------------------|
D----------------------------|
A----------------------------|
E----------------------------|

e-19^(21)r-17-15-17---------15h17-------15h17-------15h17-------15h17-------|
B------------------17h15----------15h17-------15h17-------15h17-------15h17-|
G---------------------------------------------------------------------------|
D---------------------------------------------------------------------------|
A---------------------------------------------------------------------------|
E---------------------------------------------------------------------------|

e--15h17-------15h17-------15--17--15--17--15--17-----|
B--------15h17-------15h17----------------------------|
G-----------------------------------------------------|
D-----------------------------------------------------|
A-----------------------------------------------------|
E-----------------------------------------------------|

e--19----19-------21-------21-------19----15----12----5---3------------|
B-----17----17-17----17-17----17-17----17----15----8----5---3--2^(3)-0-|
G----------------------------------------------------------------------|
D----------------------------------------------------------------------|
A----------------------------------------------------------------------|
E----------------------------------------------------------------------|


e----------------------------------------------------------------------|
B----------------------------------------------------------------------|
G-2p0h2--2p0h2--2p0h2--2p0h2--2-4-2-4--4p2p0---------------------------|
D---------------------------------------------2p0----------------------|
A--------------------------------------------------2p0-----------------|
E------------------------------------------------------3p0-------------|

Arghh!

ok now just after the solo this happens

Part 7.

Play X3

e--------------------|
B--9--7--5----9--12--|
G--9--7--6----9--12--|
D--9--7--7----9--12--|
A--7--5--7----7--10--|
E--------5-----------|
Comments