Led Zeppelin - Dazed And Confused Chords & Tabs

 

Dazed And Confused Chords & Tabs

Led Zeppelin Chords & Tabs

Version: 6 Type: Bass Tab 0 ratings
1 star 2 stars 3 stars 4 stars 5 stars
comments

Dazed And Confused Bass Tab

   
                                                                
G||---------------------------|--------------------------------|
D||---------------------------|--------------------------------|
A||---------------------------|--10------9------8~-----7-------|
E||------------------------0--|-----------------------------0--|


                                                                 
-------------------------------|--------------------------------|
-------------------------------|--------------------------------|
--5------4------3~-----2-------|--10------9------8~-----7-------|
----------------------------0--|-----------------------------0--|


                                                                 
-------------------------------|--------------------------------|
-------------------------------|--------------------------------|
--5------4------3~-----2-------|--10------9------8~-----7-------|
----------------------------0--|-----------------------------0--|


                                                                 
-------------------------------|--------------------------------|
-------------------------------|--------------------------------|
--5------4------3~-----2-------|--10------9------8~-----7-------|
----------------------------0--|-----------------------------0--|


                                                                 
-------------------------------|--------------------------------|
-------------------------------|--------------------------------|
--5------4------3~-----2-------|--10------9------8~-----7-------|
----------------------------0--|-----------------------------0--|


                                                                 
-------------------------------|--------------------------------|
-------------------------------|--------------------------------|
--5------4------3~-----2-------|--10------9------8~-----7-------|
----------------------------0--|-----------------------------0--|


                                                                 
-------------------------------|--------------------------------|
-------------------------------|--------------------------------|
--5------4------3~-----2-------|--10------9------8~-----7-------|
----------------------------0--|-----------------------------0--|


                                                                 
-------------------------------|--------------------------------|
-------------------------------|--------------------------------|
--5------4------3~-----2-------|--10------9------8~-----7-------|
----------------------------0--|-----------------------------0--|


                                                                        
-----------------------|---------------2h4-----|---------------2h4-----|
-----------------------|-----------2h4-----2h4-|-----------2h4-----2h4-|
--5------4------3~-----|--2--2--2--------------|--2--2--2--------------|
-----------------------|-----------------------|-----------------------|


                                                
---------------2h4-----|---------------2h4-----|
-----------2h4-----2h4-|-----------2h4-----2h4-|
--2--2--2--------------|--2--2--2--------------|
-----------------------|-----------------------|


                                                                 
--------------------------------|-------------------------------|
--2-----------------------------|-------------------------------|
----------10------9------8~-----|--7-------5------4------3~-----|
-------0------------------------|-------0-----------------------|


                                                                 
--------------------------------|-------------------------------|
--------------------------------|-------------------------------|
--2-------10------9------8~-----|--7-------5------4------3~-----|
-------0------------------------|-------0-----------------------|


                                                                 
--------------------------------|-------------------------------|
--------------------------------|-------------------------------|
--2-------10------9------8~-----|--7-------5------4------3~-----|
-------0------------------------|-------0-----------------------|


                                                                 
--------------------------------|-------------------------------|
--------------------------------|-------------------------------|
--2-------10------9------8~-----|--7-------5------4------3~-----|
-------0------------------------|-------0-----------------------|


  B5                                                                    
---------------2h4-----|---------------2h4-----|---------------2h4-----|
-----------2h4-----2h4-|-----------2h4-----2h4-|-----------2h4-----2h4-|
--2--2--2--------------|--2--2--2--------------|--2--2--2--------------|
-----------------------|-----------------------|-----------------------|


                                                                
---------------2h4-----|-------------------|-------------------|
-----------2h4-----2h4-|-------------------|--5-5-5-5----------|
--2--2--2--------------|--7-7-7-7-5--------|----------7--------|
-----------------------|-------------------|-------------------|


                                                                                
-------------------|-------------------|-------------------|-------------------|
--7-7-7-7----------|--5-5-5-5----------|-------------------|--5-5-5-5----------|
----------7--------|----------7--------|--7-7-7-7-5--------|----------7--------|
-------------------|-------------------|-------------------|-------------------|


                                                                                
-------------------|-------------------|-------------------|-------------------|
--7-7-7-7----------|--9-9-9-9----------|--7-7-7-7----------|--5-5-5-5----------|
----------7--------|----------7--------|----------7--------|----------7--------|
-------------------|-------------------|-------------------|-------------------|


                                                             
--------------------|-------------------|-------------------|
--------------------|--5-5-5-5----------|--9-9-9-9----------|
--5-5-5-5-5h7-------|----------7--------|----------7--------|
--------------------|-------------------|-------------------|


                                                              
-------------------|--------------------|--------------------|
--7-7-7-7----------|--------------------|--5-5-5-5-----------|
----------7--------|--5-5-5-5-5h7-------|----------5h7-------|
-------------------|--------------------|--------------------|


                                                             
--------------------|-------------------|-------------------|
--7-7-7-7-----------|--9-9-9-9----------|--7-7-7-7----------|
----------5h7-------|----------7--------|----------7--------|
--------------------|-------------------|-------------------|


                                                                                
-------------------|-------------------|-------------------|-------------------|
--5-5-5-5----------|--5-5-5-5----------|--7-7-7-7----------|--9-9-9-9----------|
----------7--------|----------7--------|----------7--------|----------7--------|
-------------------|-------------------|-------------------|-------------------|


                                                                                
-------------------|-------------------|--7----------------|--9----------------|
--7-7-7-7----------|--9-9-9-9----------|----7---7----------|----9---9----------|
----------7--------|----------7--------|------7---7--------|------7---7--------|
-------------------|-------------------|-------------------|-------------------|


                                                                                
--7----------------|------9---9--------|----7---7----------|------9---9--------|
----7---7----------|----9---9----------|------7---7--------|----9---9----------|
------7---7--------|--7----------------|--7----------------|--7----------------|
-------------------|-------------------|-------------------|-------------------|


                                                                                
--7----------------|-------------------|-------------------|-------------------|
----7---7----------|-------------------|-------------------|-------------------|
------7---7--------|--8-8-8-8-8--------|--8-8-8-8-8--------|--8-8-8-8-8--------|
-------------------|-------------------|-------------------|-------------------|


                                                            
------------------------|---------------|------------------|
------------------------|---------------|------------------|
--8-8-8-8-8--8-8-8-8-8--|--7------------|------------------|
------------------------|---------------|------------------|


                                                                                
--------------------------|-------------------------|--------------------------|
--------------5--7--5-----|--------------5--7--5----|--------------5--7--5-----|
--------5--7-----------7--|--------5--7-------------|--------5--7-----------7--|
--5--7--------------------|--5--7-------------------|--5--7--------------------|


                                                                               
-------------------------|--------------------------|-------------------------|
--------------5--7--5----|--------------5--7--5-----|--------------5--7--5----|
--------5--7-------------|--------5--7-----------7--|--------5--7-------------|
--5--7-------------------|--5--7--------------------|--5--7-------------------|


                                                                                
--------------------------|-------------------------|--------------------------|
--------------5--7--5-----|--------------5--7--5----|--------------5--7--5-----|
--------5--7-----------7--|--------5--7-------------|--------5--7-----------7--|
--5--7--------------------|--5--7-------------------|--5--7--------------------|


                                                                               
-------------------------|--------------------------|-------------------------|
--------------5--7--5----|--------------5--7--5-----|--------------5--7--5----|
--------5--7-------------|--------5--7-----------7--|--------5--7-------------|
--5--7-------------------|--5--7--------------------|--5--7-------------------|


                                                                                
--------------------------|-------------------------|--------------------------|
--------------5--7--5-----|--------------5--7--5----|--------------5--7--5-----|
--------5--7-----------7--|--------5--7-------------|--------5--7-----------7--|
--5--7--------------------|--5--7-------------------|--5--7--------------------|

[ Tab from: http://www.guitartabs.cc/tabs/l/led_zeppelin/dazed_and_confused_btab_ver_6.html ]
                                                                               
-------------------------|--------------------------|-------------------------|
--------------5--7--5----|--------------5--7--5-----|--------------5--7--5----|
--------5--7-------------|--------5--7-----------7--|--------5--7-------------|
--5--7-------------------|--5--7--------------------|--5--7-------------------|


                                                                                
--------------------------|-------------------------|--------------------------|
--------------5--7--5-----|--------------5--7--5----|--------------5--7--5-----|
--------5--7-----------7--|--------5--7-------------|--------5--7-----------7--|
--5--7--------------------|--5--7-------------------|--5--7--------------------|


                                                                               
-------------------------|--------------------------|-------------------------|
--------------5--7--5----|--------------5--7--5-----|--------------5--7--5----|
--------5--7-------------|--------5--7-----------7--|--------5--7-------------|
--5--7-------------------|--5--7--------------------|--5--7-------------------|


                                                                                
--------------------------|-------------------------|--------------------------|
--------------5--7--5-----|--------------5--7--5----|--------------5--7--5-----|
--------5--7-----------7--|--------5--7-------------|--------5--7-----------7--|
--5--7--------------------|--5--7-------------------|--5--7--------------------|


                                                                               
-------------------------|--------------------------|-------------------------|
--------------5--7--5----|--------------5--7--5-----|--------------5--7--5----|
--------5--7-------------|--------5--7-----------7--|--------5--7-------------|
--5--7-------------------|--5--7--------------------|--5--7-------------------|


                                                                                
--------------------------|-------------------------|--------------------------|
--------------5--7--5-----|--------------5--7--5----|--------------5--7--5-----|
--------5--7-----------7--|--------5--7-------------|--------5--7-----------7--|
--5--7--------------------|--5--7-------------------|--5--7--------------------|


                                                                               
-------------------------|--------------------------|-------------------------|
--------------5--7--5----|--------------5--7--5-----|--------------5--7--5----|
--------5--7-------------|--------5--7-----------7--|--------5--7-------------|
--5--7-------------------|--5--7--------------------|--5--7-------------------|


                                                                                
--------------------------|-------------------------|--------------------------|
--------------5--7--5-----|--------------5--7--5----|--------------5--7--5-----|
--------5--7-----------7--|--------5--7-------------|--------5--7-----------7--|
--5--7--------------------|--5--7-------------------|--5--7--------------------|


                                                                               
-------------------------|--------------------------|-------------------------|
--------------5--7--5----|--------------5--7--5-----|--------------5--7--5----|
--------5--7-------------|--------5--7-----------7--|--------5--7-------------|
--5--7-------------------|--5--7--------------------|--5--7-------------------|


                                                                                
--------------------------|-------------------------|--------------------------|
--------------5--7--5-----|--------------5--7--5----|--------------5--7--5-----|
--------5--7-----------7--|--------5--7-------------|--------5--7-----------7--|
--5--7--------------------|--5--7-------------------|--5--7--------------------|


                                                                               
-------------------------|--------------------------|-------------------------|
--------------5--7--5----|--------------5--7--5-----|--------------5--7--5----|
--------5--7-------------|--------5--7-----------7--|--------5--7-------------|
--5--7-------------------|--5--7--------------------|--5--7-------------------|


                                                                                
--------------------------|-------------------------|--------------------------|
--------------5--7--5-----|--------------5--7--5----|--------------5--7--5-----|
--------5--7-----------7--|--------5--7-------------|--------5--7-----------7--|
--5--7--------------------|--5--7-------------------|--5--7--------------------|


                                                                               
-------------------------|--------------------------|-------------------------|
--------------5--7--5----|--------------5--7--5-----|--------------5--7--5----|
--------5--7-------------|--------5--7-----------7--|--------5--7-------------|
--5--7-------------------|--5--7--------------------|--5--7-------------------|


                                                                                
--------------------------|-------------------------|--------------------------|
--------------5--7--5-----|--------------5--7--5----|--------------5--7--5-----|
--------5--7-----------7--|--------5--7-------------|--------5--7-----------7--|
--5--7--------------------|--5--7-------------------|--5--7--------------------|


                                                                               
-------------------------|--------------------------|-------------------------|
--------------5--7--5----|--------------5--7--5-----|--------------5--7--5----|
--------5--7-------------|--------5--7-----------7--|--------5--7-------------|
--5--7-------------------|--5--7--------------------|--5--7-------------------|


                                                                                
--------------------------|-------------------------|--------------------------|
--------------5--7--5-----|--------------5--7--5----|--------------5--7--5-----|
--------5--7-----------7--|--------5--7-------------|--------5--7-----------7--|
--5--7--------------------|--5--7-------------------|--5--7--------------------|


                                                                       
--------------------------|----------------------|--------------------|
--------------5--7--5-----|----------------------|-----------------5--|
--------5--7-----------7--|----7------------7----|--7-----------------|
--5--7--------------------|-----------0--0-------|--------------------|


                                                                    
-----------------------|--------------------|----------------------|
----5--5----5--5--5----|--------------------|----7------7--7--7----|
-----------------------|--7--------------5--|----------------------|
-----------------------|--------------------|----------------------|


                                                                  
--------------------|-----------------------|--------------------|
-----------------5--|----5--5----5--5--5----|--------------------|
--7-----------------|-----------------------|--7--------------5--|
--------------------|-----------------------|--------------------|


                                                            
-------------------|--------------------|------------------|
----7--------------|-----------------5--|------------------|
-------------------|--7-----------------|------------------|
-------------------|--------------------|------------------|


                                                                        
---------------2h4-----|---------------2h4-----|---------------2h4-----|
-----------2h4-----2h4-|-----------2h4-----2h4-|-----------2h4-----2h4-|
--2--2--2--------------|--2--2--2--------------|--2--2--2--------------|
-----------------------|-----------------------|-----------------------|


                                                         
---------------2h4-----|--------------------------------|
-----------2h4-----2h4-|--2-----------------------------|
--2--2--2--------------|----------10------9------8------|
-----------------------|-------0------------------------|


                                                                 
-------------------------------|--------------------------------|
-------------------------------|--2-----------------------------|
--7-------5------4------3------|----------10------9------8------|
-------0-----------------------|-------0------------------------|


                                                                 
-------------------------------|--------------------------------|
-------------------------------|--2-----------------------------|
--7-------5------4------3------|----------10------9------8------|
-------0-----------------------|-------0------------------------|


                                                                 
-------------------------------|--------------------------------|
-------------------------------|--2-----------------------------|
--7-------5------4------3------|----------10------9------8------|
-------0-----------------------|-------0------------------------|


                                                                                
-------------------------------|---------------2h4-----|---------------2h4-----|
-------------------------------|-----------2h4-----2h4-|-----------2h4-----2h4-|
--7-------5------4------3------|--2--2--2--------------|--2--2--2--------------|
-------0-----------------------|-----------------------|-----------------------|


                                                                    
---------------2h4-----|---------------2h4-----|-------------------|
-----------2h4-----2h4-|-----------2h4-----2h4-|-------------------|
--2--2--2--------------|--2--2--2--------------|--7-7-7-7-5--------|
-----------------------|-----------------------|-------------------|


                                                            
-------------------|-------------------|--7-7-7-7----------|
--7-7-7-7-5--------|--9-9-9-9-7--------|----------9--------|
-------------------|-------------------|-------------------|
-------------------|-------------------|-------------------|


                                                                           
--9-9-9-9-9p7-------|----------------|-------------------|----------------|
--------------------|----------------|-------------------|----------------|
--------------------|--5h-7----------|--7-7-7-7-5--------|--5h-7----------|
--------------------|----------------|-------------------|----------------|


                                                                   
----------------|------------------------|------------------------|
----------------|------------------------|------------------------|
--5h-7----------|--5h7-7-7p5--5-5-5-5-5--|--5-5-5-5-5--5-5-5-5-5--|
----------------|------------------------|------------------------|


                                                                  
------------------------|------------------------|--------------||
------------------------|------------------------|--------------||
--5-5-5-5-5--5-5-5-5-5--|--5-5-5-5-5--5-5-5-5-7--|--------------||
------------------------|------------------------|--------------||
Comments