Led Zeppelin - Dazed And Confused Chords & Tabs

 

Dazed And Confused Chords & Tabs

Led Zeppelin Chords & Tabs

Version: 3 Type: Bass Tab 0 ratings
1 star 2 stars 3 stars 4 stars 5 stars
comments

Dazed And Confused Bass Tab

Led Zeppelin “Dazed and Confused”
Early Days Volume One

Main Riff
|---------------------------------------|
|----5---4---3---2----------------------|
|--0-------------------0-5---4---3---2--|
|---------------------------------------|

Sometimes (play a few times):
|------------------------|
|------------2-4---------|
|--2-2-2-2-4-----2-4-----|
|------------------------|
         \play fast/
Slow part
|------------------------------------|
|--------------------4-4-4-4-2-------|
|--4-4-4-4-2-------------------------|
|------------------------------------|
[ Tab from: http://www.guitartabs.cc/tabs/l/led_zeppelin/dazed_and_confused_btab_ver_3.html ]
Repeat ^that^ for a while then make variations of this:
|--4-2---4-------------------|
|------4---2------4-2---4----|
|---------------------4---2--|
|----------------------------|

Then for the solo part do this very fast:
|--------------5----------------------------|
|----------5-7---5----------5-7-5-----------|
|------5-7--------------5-7-----------------|
|--5-7--------------5-7---------------------|

Ending:
|----------------------------|
|----------------------------|  Slide from 2 to 4 and hold 
|--2-2-2-2-2-----2-2-2-2-2---|  the note the last time you 
|----------------------------|  do it
Comments