Led Zeppelin - Bron Yr Aur Chords & Tabs

 

Bron Yr Aur Chords & Tabs

Led Zeppelin Chords & Tabs

Version: 4 Type: Tab 0 ratings
1 star 2 stars 3 stars 4 stars 5 stars
comments

Bron Yr Aur Tab

  Play x4                                            Play x4
            
e-------0------------]]-------3-0-----------------------1-----0-------------------------]]
B---------------1----]]-3---------3-----------1-------1---1-----1-------------1-------1-]]
G-----0-------0------]]---0---------0-------0-------0-------0-----0---------0-------0---]]
D---2-------2--------]]-----0---------2---2-------2-----------------2-----2-------2-----]]
A-3-------3----------]]-2---------------3-------3-------2-------------2-3-------3-------]]
E--------------------]]-----------------------------------------------------------------]]

	Play x2  
  
e---------------0-----------------]------3-0-----------------------1-----0------------------------] 
B-------1---------------1-------1-]3---------3-----------1-------1---1-----1-------------1-------1]
G-----0-------0-------0-------0---]--0---------0-------0-------0-------0-----0---------0-------0--]
D---3-------3-------2-------2-----]----0---------2---2-------2-----------------2-----2-------2----]
A-3-------3-------3-------3-------]2---------------3-------3-------2-------------2-3-------3------]
E---------------------------------]---------------------------------------------------------------]

         Play x2
  
e-----------------------0---------]-----------------------0-------1-------0-------1-------0--------]
B-------1-------3---------------1-]-------1-------3-----------------------------------------------1]
G-----0-------0-------2-------2---]-----0-------0-------2-------2-------2-------2-------2-------2--]
D---2-------0-------2-------2-----]---2-------0-------2-------2-------2-------2-------2-------2----]
A-3-------2-------0-------0-------]-3-------2-------0-------0-------0-------0-------0-------0------]
E---------------------------------]----------------------------------------------------------------]
[ Tab from: http://www.guitartabs.cc/tabs/l/led_zeppelin/bron_yr_aur_tab_ver_4.html ]
	Play x4                                     Play x2
  
e-------1-------------------------]------3-0-----------------------1-----0-------------------------]
B-----1-------3-1-------1-------1-]3---------3-----------1-------1---1-----1-------------1-------1-]
G---2-------4---------0-------0---]--0---------0-------0-------0-------0-----0---------0-------0---]
D-3-------5---------2-------2-----]----0---------2---2-------2-----------------2-----2-------2-----]
A-----------------3-------3-------]2---------------3-------3-------2-------------2-3-------3-------]
E---------------------------------]----------------------------------------------------------------]

	Play x2  
  
e---------------0-----------------]------3-0-----------------------1-----0------------------------] 
B-------1---------------1-------1-]3---------3-----------1-------1---1-----1-------------1-------1]
G-----0-------0-------0-------0---]--0---------0-------0-------0-------0-----0---------0-------0--]
D---3-------3-------2-------2-----]----0---------2---2-------2-----------------2-----2-------2----]
A-3-------3-------3-------3-------]2---------------3-------3-------2-------------2-3-------3------]
E---------------------------------]---------------------------------------------------------------]

         Play x2
  
e-----------------------0---------]-----------------------0-------1-------0-------1-------0--------]
B-------1-------3---------------1-]-------1-------3-----------------------------------------------1]
G-----0-------0-------2-------2---]-----0-------0-------2-------2-------2-------2-------2-------2--]
D---2-------0-------2-------2-----]---2-------0-------2-------2-------2-------2-------2-------2----]
A-3-------2-------0-------0-------]-3-------2-------0-------0-------0-------0-------0-------0------]
E---------------------------------]----------------------------------------------------------------]

	Play x3
  
e-------1-------------------------] 
B-----1-------3-1-------1-------1-]
G---2-------4---------0-------0---]
D-3-------5---------2-------2-----]
A-----------------3-------3-------]
E---------------------------------]

  
e-------1---------------0-------1-------0-------1-------0-------1-------0---------]
B-----1-------3-3---------------------------------------------------------------1-]
G---2-------4---------2-------2-------2-------2-------2-------2-------2-------2---]
D-3-------5---------2-------2-------2-------2-------2-------2-------2-------2-----]
A-----------------0-------0-------0-------0-------0-------0-------0-------0-------]
E---------------------------------------------------------------------------------]

                                 Ending

               (Slow until end)
e-------------1-0-----1-0-----1-0-----1-0-----1-0-----1-0-----1-0---0-]
B-------1-----------------------------------------------------------1-]
G-----0-----0-------------------------------0--------------0--------0-]
D-2-3---------------2-------2-------2---------------2---------------2-]
A---------3-------3-------3-------3-------3-------3-------3---------3-]
E-------------------------------------------------------------------0-]

Comments