Led Zeppelin - Boogie With Stu Chords & Tabs

 

Boogie With Stu Chords & Tabs

Led Zeppelin Chords & Tabs

Version: 2 Type: Tab 0 ratings
1 star 2 stars 3 stars 4 stars 5 stars
comments

Boogie With Stu Tab

                        Led Zeppelin-Boogie With Stu

Tabbed by: Adam
Email: Iampinkfloyd@hotmail.com

Heres a simple yet fun song off Physical Graffiti thats one of my favourites.
I have tried to make it simple, and I've arranged the mandolin solo's for guitar. Thanks 
to my friend Ian for letting me use his mandolin. Made with Guitar Pro.

First Verse *** First Half Only (12 bars)

Only Play the first A chord on the first time through.
E||---------------------------|--------------------------||
B||---------------------------|--------------------------||
G||*--2--2-----------------2--|----2-----------------2--*||
D||*--2--2--4--2--2--------2--|----2--4--2--2--------2--*||
A||---0--0--0--0--0--3--4--0--|----0--0--0--0--3--4--0---||
E||---------------------------|--------------------------||

----------------------------||--------------------------|
----------------------------||--------------------------|
*--2--2--------2--2--4--2--*||--2--2-----------------2--|
*--0--0--3--4--0--0--0--0--*||--2--2--4--2--2--------2--|
----------------------------||--0--0--0--0--0--3--4--0--|
----------------------------||--------------------------|

--------------------------||----------------------------||
--------------------------||----------------------------||
--2--2--------2--2--------||*--------------------------*||
--2--2--4--2--2--2--4--2--||*--------------------------*||
--0--0--0--0--0--0--0--0--||---2--2--4--2--2--2--4--2---||
--------------------------||---0--0--0--0--0--0--0--0---||

|----------------------------||
|----------------------------||
|*--2--2--------------------*||
|*--2--2--------2--2--4--2--*||
|---0--0--3--4--0--0--0--0---||
|----------------------------||

***For the rest of the song, page pretty much sticks this pattern:
                          4x
|----------------------------||----------------------------||
|----------------------------||----------------------------||
|*--2--2--------------------*||*--2--2--------2--2--4--2--*||
|*--2--2--------2--2--4--2--*||*--0--0--3--4--0--0--0--0--*||
|---0--0--3--4--0--0--0--0---||----------------------------||
|----------------------------||----------------------------||

---------------------------||----------------------------|
---------------------------||----------------------------|
--2--2--------------------*||*--------------------------*|
--2--2--------2--2--4--2--*||*--------------------------*|
--0--0--3--4--0--0--0--0---||---2--2--4--2--2--2--4--2---|
---------------------------||---0--0--0--0--0--0--0--0---|

Verses end on:               Solos End With: (continues the progression)
|-----||                     |----------------------------||
|-----||                     |----------------------------||
|--2--||                     |*--2--2--------------------*||
|--2--||                     |*--2--2--------2--2--4--2--*||
|--0--||                     |---0--0--3--4--0--0--0--0---||
|-----||                     |----------------------------||


Use some variations, such as keeping the first beat silent:
   1   &  2  &  3  &  4  &
|----------------------------||
|----------------------------||
|*-----2--------------------*||
|*-----2--------2--2--4--2--*||
|------0--3--4--0--0--0--0---||
|----------------------------||
 Other than that, this song is all about feel, so just Boogie with Stu.


Mandolin:
First Solo
|------------------0--|--5--5--5--5--5--5--5--5--|--5--3--2--0-------------|
|---------------1-----|--------------------------|--------------1--0-------|
|------------2--------|--------------------------|--------------------2----|
|---------------------|--------------------------|-----------------------4-|
|---------------------|--------------------------|-------------------------|
|---------------------|--------------------------|-------------------------|

--------------5--------3--|--------5--------3--------|
--------1--2--------------|-----2-----------------2--|
--2--2-----------5--6-----|--5--------5--6-----5-----|
--------------------------|--------------------------|
--------------------------|--------------------------|
--------------------------|--------------------------|

--3--2--0-----------------|--------------------------|
-----------1--0--------0--|--------1--0--------------|
-----------------2--------|--2-----------2-----2--2--|
--------------------4-----|-----4-----------3--------|
--------------------------|--------------------------|
--------------------------|--------------------------|
[ Tab from: http://www.guitartabs.cc/tabs/l/led_zeppelin/boogie_with_stu_tab_ver_2.html ]
--------------5--------5--|--------5--5----------0--|----------------0-------|
--------1--2--------------|-------------------0-----|--1--0-------0-----2--0-|
--2--2-----------5--6-----|--5--6-------------------|------------------------|
--------------------------|----------------3--------|----------3-------------|
--------------------------|-------------------------|------------------------|
--------------------------|-------------------------|------------------------|

-----------0--------------|-----------0--2-----0--2--|
--0-----0-----1--0-----0--|--------1--------2--------|
--------------------------|--2--2--------------------|
-----4--------------4-----|--------------------------|
--------------------------|--------------------------|
--------------------------|--------------------------|

--5--0-----5--0--0-----5-----|
--------2-----------2-----2--|
-----------------------------|
-----------------------------|
-----------------------------|
-----------------------------|


Outro Solo
|-----------------2--0--0--|--5--5--5--5--5--5--5--5--|
|--2--0--------------------|--------------------------|
|--------2-----2-----------|--------------------------|
|-----------4--------------|--------------------------|
|--------------------------|--------------------------|
|--------------------------|--------------------------|

--5--3--2--0--------------------|--------------2-----0-----|
--------------1--2--0-----------|--------0--2-----2-----0--|
-----------------------2--------|--2--2--------------------|
--------------------------3--4--|--------------------------|
--------------------------------|--------------------------|
--------------------------------|--------------------------|

-----------------------0--|--5--5--5--5--5--5--5--5--|
--2--0--------------2-----|--------------------------|
--------2-----2--2--------|--------------------------|
-----------4--------------|--------------------------|
--------------------------|--------------------------|
--------------------------|--------------------------|

--5--3--2--0--------------|--------------0--------5--|
--------------2--0--------|--------0--2-----1--2-----|
--------------------2-----|--2--2--------------------|
-----------------------4--|--------------------------|
--------------------------|--------------------------|
--------------------------|--------------------------|

--------3--------2--0-----|--------------0-----------|
--------------2--------2--|--0--------0-----1--2--0--|
--5--6-----5--------------|-----2--------------------|
--------------------------|--------4-----------------|
--------------------------|--------------------------|
--------------------------|--------------------------|

-----------0--------------|--------------5--5--5--5--|
--0-----0-----2--0--------|--------1--2--------------|
-----------------------2--|--2--2--------------------|
-----4--------------4-----|--------------------------|
--------------------------|--------------------------|
--------------------------|--------------------------|

--5--2--0-------------------|----------------------|----------5--------5-----|
-----------1--2----0--------|----------------------|----1--2-----------------|
----------------------2-----|--2---------2---------|-------------5--6-----5--|
-------------------------4--|-------4---------4----|-------------------------|
----------------------------|----------------------|-------------------------|
----------------------------|----------------------|-------------------------|

-----5-------------------|-----------5--------5-----|-----5--------------|
-------------------------|--------------------------|--------------------|
--6----------------------|-----5--6-----5--6-----4--|--5-----------------|
--------5--4--2----4--4--|--4-----------------------|--------------------|
-------------------------|--------------------------|--------------------|
-------------------------|--------------------------|--------------------|

----------5--------5-----|-----5--------------------|-----------5--------5---|
-------------------------|--------------------------|-----1--2---------------|
----5--6-----5--6-----5--|--6-----------------------|--------------5--6------|
-------------------------|--------5--4--2--2--4--4--|--2---------------------|
-------------------------|--------------------------|------------------------|
-------------------------|--------------------------|------------------------|

--0--0--0--0--0--0--0--0--|--0--0--0--0--0--0--0--0--|--5--||
--0--0--2--2--0--0--2--2--|--0--0--2--2--0--0--2--2--|-----||
--------------------------|--------------------------|--2--||
--------------------------|--------------------------|-----||
--------------------------|--------------------------|-----||
--------------------------|--------------------------|-----||

Boogie!!!!!!!
Comments