Led Zeppelin - Black Dog Chords & Tabs

 

Black Dog Chords & Tabs

Led Zeppelin Chords & Tabs

Version: 7 Type: Tab 0 ratings
1 star 2 stars 3 stars 4 stars 5 stars
comments

Black Dog Tab

	Led Zeppelin
	"Black Dog"
	Led Zeppelin ZOSO
	Atlantic Records 1971



I kinda screwed up on the timing here



Riff 1
======
e:------------------------------
B:---------------------5--------
G:-----------5b6-----7---5h7p5--
D:---5-6-7--------7-------------
A:-7-------7--------------------
E:------------------------------
|                              |
e:------------------------------
B:------------------------------
G:-------5b6--------------------
D:-7--7-------7---5-7-7---------
A:----------------------5-7---5-
E:--------------------------8---
|                              |
e:--------|---------------------
B:--------|---------------------
G:--------|---------------------
D:--------|---------------------
A:-7---7--|---------------------
E:-5---5--|---------------------


Riff 2
======
e:-----------------------------
B:-----------------------------
G:-----------------------------
D:-----------5b6---------------
A:---5-6-7--------7----5-6-7---
E:-7-------7---------7-------7-
|                             |
e:-----------------------------
B:-----------------------------
G:-----------------------------
D:-5b6---------------5b6-------
A:------7----5-6-7--------7----
E:---------7-------7---------7-
|         |
e:---------
B:---------
G:---------
D:-------5-
A:-5-6-7---
E:---------

[ Tab from: http://www.guitartabs.cc/tabs/l/led_zeppelin/black_dog_tab_ver_7.html ]
Riff 3
======
e:----------------------------
B:----------------------------
G:--------5p4p2--4--2---------
D:----------------------------
A:-3--0----------------3--0---
E:----------------------------
|                            |
e:----------------------------
B:----------------------------
G:-5p4p2--4--2---------5---2--
D:---------------------5---2--
A:--------------3--0---3---0--
E:----------------------------
|                            |
e:----------------------------
B:----------------------------
G:-5p4p2---------------5p4p2--
D:--------4--2----------------
A:--------------3--0----------
E:----------------------------
|                            |
e:----------------------------
B:----------------------------
G:-4--2---------5p4p2--4--2---
D:----------------------------
A:-------3--0-----------------
E:----------------------------
|                            |
e:----------------------------
B:----------------------------
G:--------5---2---------------
D:--------5---2---2-----------
A:-3--0---3---0---0-----------
E:----------------3b5---------


Riff 4
======
%--
e:-------------------------
B:-------------------------
G:-------------------------
D:-2----2------2-------2---
A:-0----0------0----3--0---
E:---3-----3-----3---------
|                         |
e:------------3----2-------
B:------------3----3-------
G:------------0----2-------
D:-2----2-----0----0-------
A:-0----0-----2----0-------
E:---3-----3---------------
--%
|                         |
e:-------------------------
B:-2-----------------------
G:-2-----------------------
D:-2-----------------------
A:-0-----------------------
E:-------------------------



Riff 5
======
e:---------------------4--------
B:-----------5b6-----7---5h7p5--
G:---4-5-6--------6-------------
D:---------5--------------------
A:-7----------------------------
E:------------------------------
|                              |
e:------------------------------
B:-------5b6--------------------
G:-6--6-------6---4-6-6---------
D:----------------------4-5---4-
A:--------------------------7---
E:------------------------------
|                              |
e:--------|---------------------
B:--------|---------------------
G:--------|---------------------
D:--------|---------------------
A:-7---7--|---------------------
E:-----5--|---------------------
Comments