Led Zeppelin - Black Dog Live Chords & Tabs

 

Black Dog Live Chords & Tabs

Led Zeppelin Chords & Tabs

Version: 1 Type: Tab 0 ratings
1 star 2 stars 3 stars 4 stars 5 stars
comments

Black Dog Live Tab

I think this is off the 'Song Remains the Same' DVD, but as I don't own it I'm not
100% sure. Anyways, it's a good live version that some of u might have heard...


E--7777777777777777-7777-8888-9999--|----------------------------|
B--6666666666666666-6666-7777-8888--|----------------------------|
G--7777777777777777-7777-8888-9999--|-------------2b4r2-1h2p1----|
D--5555555555555555-5555-6666-7777--|------0h2----------------2--|
A--5555555555555555-5555-6666-7777--|--0h2-----------------------|
E-----------------------------------|----------0-----------------|

E--------------------------|
B--------------------------|
G-------------2b4r2-2p1h2--|     Repeat (without chords)
D------0h2-----------------|
A--0h2---------------------|
E----------0---------------|
[ Tab from: http://www.guitartabs.cc/tabs/l/led_zeppelin/black_dog_live_tab.html ]
E----------------------------------------|---------------------------------|
B--------12h14p12--14b15r14-12h14p12-----|--------12h14p12--14b15r14-12h14-|
G--12h13-----------------------------13--|--12h13--------------------------|
D----------------------------------------|---------------------------------|
A----------------------------------------|---------------------------------|
E----------------------------------------|---------------------------------|

Repeat the above once, then...

E-----------------------------------|
B--------12h14p12--14b15r14p12------|
G--12h13------------------------14--|
D-------------------------------14--|
A-------------------------------12--|
E-----------------------------------|

"Hey, mama said the way you move gonna make you sweat, gonna make you groove..."

And then into the main riff, which u can find elsewhere.

If anyone recognises this and knows how 2 play the solo with it, email me @ trebor69a@aol.com.

Enjoy!
Comments