Led Zeppelin - Black Dog Chords & Tabs

 

Black Dog Chords & Tabs

Led Zeppelin Chords & Tabs

Version: 3 Type: Bass Tab 0 ratings
1 star 2 stars 3 stars 4 stars 5 stars
comments

Black Dog Bass Tab

Led Zeppelin
Black Dog
Transcribed By Matt Carroll
[ Tab from: http://www.guitartabs.cc/tabs/l/led_zeppelin/black_dog_btab_ver_3.html ]
I have looked at the other tabs for this song and they aren't as 
accurate as this
Riff 1
1|---------------------------------------------------------|---|
2|--------------10--12-14-10h12p10-----10--5-7-7-----------|---|
3|----10-11-12----12--------------12-12--12-----5-7-3-5-0--|-0-|
4|--12-----------------------------------------------------|---|

1|---------------------------------------------------------|
2|---------5-----------5-----------5-----------------------|
3|---5-6-7--7----5-6-7--7----5-6-7--7----5-6-7-------------|
4|--7-----7-----7-----7-----7-----7-----7------------------|
                  Go Right In To First Verse
Comments