Led Zeppelin - Babe Im Gonna Leave You Chords & Tabs

 

Babe Im Gonna Leave You Chords & Tabs

Led Zeppelin Chords & Tabs

Version: 2 Type: Tab 0 ratings
1 star 2 stars 3 stars 4 stars 5 stars
comments

Babe Im Gonna Leave You Tab

Song: Babe I'm Gonna Leave You
Album: Led Zeppelin I
Tabed By: Paul
E-mail: cr05@yosemite.net


My guitar teacher showed me this song, and he is very good!
If any problems E-mail me at cr05@yosemite.net Here it is!

                  riff 1
E|-------0-------------------------------------------------|
B|-----1---------1-------3-------1-------3-------1-------3-|
G|---2---------2-------0-------0-------2-------2-------2---|
D|-----------2-------2-------2-------0-------0-------3-----|
A|-0-------0-----------------------------------------------|
E|-----------------3-------3-------2-------2-------1-------|


E|---------------|
B|-------0-------|
G|-----1---------|
D|---2-----------|
A|---------------|
E|-0-------------|
[ Tab from: http://www.guitartabs.cc/tabs/l/led_zeppelin/babe_im_gonna_leave_you_tab_ver_2.html ]
                        riff 2
E|-------3-------0-------3-------0-------------------------|
B|-----1-------1-------1-------1----------3-------1-------3|
G|---2-------2-------0-------0----------2-------2--------2-|
D|------------------------------------0-------0--------3---|
A|-0-------0-----------------------------------------------|
E|-----------------3-------3--------2-------2--------1-----|


E|---------------|
B|-------0-------|
G|-----1---------|
D|---2-----------|
A|---------------|
E|-0-------------|

  I'll leave you in the summer time
E|-0-0-0-0-0--0-0-0-0-0-0--------|
B|-1-1-1-1-9--7-7-7-7-7-7--------|
G|-2-2-2-2-10-8-8-8-8-8-8--------|
D|-2-2-2-2-10-8-8-8-8-8-8--------|
A|-0-0-0-0-0--0-0-0-0-0-0--------|
E|-0-0-0-0-0--0-0-0-0-0-0--------|


There it is, well not the whole thing but I just ordered the Led Zeppelin book and i'll 
tab the whole song when I get the book. Well hoped you liked it!!
Comments