Led Zeppelin - All My Love Chords & Tabs

 

All My Love Chords & Tabs

Led Zeppelin Chords & Tabs

Version: 1 Type: Tab 0 ratings
1 star 2 stars 3 stars 4 stars 5 stars
comments

All My Love Tab

   
Led Zeppelin - All My Love

        This song is entirely in 4/4, key of C. It switches to D for the
end. Standard tuning [EADGBe] (low to high).


| = not a standard bar line; just used to separate music
~ = vibrato or held note
. = staccato; mute the note immediately after striking it
h = hammer on
p = pull off
s = slide
b = bend string up to indicated pitch/fret
r = release bend to indicated string/fret
/ = slide up from infinity
\ = slide down into infinity
o  \_
o  /   repeat sign (always look for these!)

[x35553] = fret box; this is a C chord - this is the same as standard
  tablature, only turned on its side. Tilt your head clockwise to read.

[Intro]
       Am       G       Dm         Am        G       D
      *        *        *          *        *        *
e:--0-0-0-0--3-3-3-3--1-1-1~--|--0-0-0-0--3-3-3-3--2-2-2~------------|
B:--1-1-1-1--3-3-3-3--3-3-3~--|--1-1-1-1--3-3-3-3--3-3-3~------------|
G:--2-2-2-2--0-0-0-0--2-2-2~--|--2-2-2-2--0-0-0-0--2-2-2~------------|
D:--2-2-2-2--0-0-0-0--0-0-0~--|--2-2-2-2--0-0-0-0--0-0-0~------------|
A:--0-0-0-0--2-2-2-2----------|--0-0-0-0--2-2-2-2--------------------|
E:-----------3-3-3-3----------|-----------3-3-3-3--------------------|

* = Page does a quick sweep of the same chord (or some such move)

[Riff 1]
       C        Em/B      Am   Am/G     G      F     G7
e:--0-0-0-0~--0-0-0-0~--0-0-0~--0~----3-3-3~--1-1--|--1--------------|
B:--1-1-1-1~--0-0-0-0~--1-1-1~--1~----3-3-3~--1-1--|--0--------------|
G:--0-0-0-0~--0-0-0-0~--2-2-2~--2~----0-0-0~--2-2--|--0--------------|
D:--2-2-2-2~--2-2-2-2~--2-2-2~--2~----0-0-0~--3-3--|--0--------------|
A:--3-3-3-3~--2-2-2-2~--0-0-0~--x-----2-2-2~--3-3--|--x--------------|
E:------------------------------3~----3-3-3~--1-1--|--3--------------|

[Riff 2] - Slower

    G    F    G6  Dm   C/G   G7   Am/G   G
e:--3----1----0----1----0-----1----0-----3---------------------------|
B:--3----1----0----3----1-----0----1-----3---------------------------|
G:--0----2----0----2----0-----0----2-----0---------------------------|
D:--0----3----2----0----2-----0----2-----0---------------------------|
A:--2----3----x---------x-----x----x-----2---------------------------|
E:--3----1----3---------3-----3----3-----3---------------------------|

[Riff 3]

   A  A7      D       F#m       Bm     Bm/A    A  A/G   G    A7
e:-0--0--|-2-2-2-2~-2-2-2-2~--2-2-2-2--2-2-2---0~--0~--3-3---0-------|
B:-2--2--|-3-3-3-3~-2-2-2-2~--3-3-3-3--3-3-3---2~--2~--3-3---2-------|
G:-2--0--|-2-2-2-2~-2-2-2-2~--4-4-4-4--4-4-4---2~--2~--0-0---0-------|
D:-2--2--|-0-0-0-0~-4-4-4-4~--4-4-4-4--4-4-4---2~--2~--0-0---2-------|
A:-0--0--|----------4-4-4-4~--2-2-2-2--0-0-0---0~--x---2-2---0-------|
E:-------|----------2-2-2-2~-----------------------3~--3-3-----------|

[Fill 1]                 [Fill 2]
e:---------------------|----5---5--7p5-------------------------------|
B:--6b7r6~----6b7r6~---|------5--------6s3--6------------------------|
G:---------------------|-7b9------------------7----------------------|
D:---------------------|---------------------------------------------|
A:---------------------|---------------------------------------------|
E:---------------------|---------------------------------------------|

[Fill 3]
e:-----------------------------------------------------------|-------|
B:-15b17---15b17~~----13-15--15b17~~---15--13--15---13h15p13-|--6-8--|
G:-----------------------------------------------------------|-------|
D:-----------------------------------------------------------|-------|
A:-----------------------------------------------------------|-------|
E:-----------------------------------------------------------|-------|

e:------------------------|------------------------------------------|
B:-8b10--8b10--8---6h8p6--|-15b17~--15--13--15--15b17~--15-13h15p13--|
G:------------------------|------------------------------------------|
D:------------------------|------------------------------------------|
A:------------------------|------------------------------------------|
E:------------------------|------------------------------------------|

e:------------------------|------------------------------------------|
B:-13h15p13~~--13h15p13.--|--6-8--8b10--8b10~~~----------------------|
G:------------------------|------------------------------------------|
D:------------------------|------------------------------------------|
A:------------------------|------------------------------------------|
E:------------------------|------------------------------------------|

[Fill 4]                      [Fill 5]
e:----5---5-7p5-----7p5-----|----------------------------------------|
B:------5-------6p5-----6p5-|-------5b7r5---5b7r5--------------------|
G:7b9-----------------------|----7-----------------------------------|
D:--------------------------|--7-------------------------------------|
A:--------------------------|----------------------------------------|
E:--------------------------|----------------------------------------|

[Fill 6]
                        hold bend
e:-------------------------------------------------------------------|
B:-15b17~--15-13-15-15b17~17~~--15--13h15p13---13h15p13~-13h15p13~---|
G:-------------------------------------------------------------------|
D:-------------------------------------------------------------------|
A:-------------------------------------------------------------------|
E:-------------------------------------------------------------------|

e:------------------------|------------------------------------------|
B:--6--8--8b10---8b10~~~--|---15b17~--15--13-15--15b17~---15-13-15---|
G:------------------------|------------------------------------------|
D:------------------------|------------------------------------------|
A:------------------------|------------------------------------------|
E:------------------------|------------------------------------------|

e:-------------------------------------------------------------------|
B:--13h15p13~--13h15p13~----6--8--8b10---8b10~-----------------------|
G:-------------------------------------------------------------------|
D:-------------------------------------------------------------------|
A:-------------------------------------------------------------------|
E:-------------------------------------------------------------------|
[ Tab from: http://www.guitartabs.cc/tabs/l/led_zeppelin/all_my_love_tab.html ]
[Fill 7]                        [Fill 8]
e:----------------------------|--------------------------------------|
B:----------------------------|--10b12r10~---------------------------|
G:---------5---5--7-7b9--7-5~-|---------------7p5-----7p5-----5~-----|
D:-5---5-7---7----------------|-------------------7~------7~---------|
A:---7------------------------|--------------------------------------|
E:----------------------------|--------------------------------------|

[Fill 9]
   G         F         G6          Dm         C/G      G7   Am/G       G
e:----------------------------------------------------------------------|
B:--8b10r8----6b8r6-----10b12r10-----8b10r8-----6b8r6---/5--------------|
G:-----------------------------------------------------------7b9r7------|
D:---------------------------------------------------------5---------5~-|
A:----------------------------------------------------------------------|
E:----------------------------------------------------------------------|

[Fill 10]                           [Fill 11]
e:-----------------5---------------|----------5-----------------------|
B:-------------------8p5--8b10r8---|--------5---8p5--8b10r8-----------|
G:-----5---5-7b9-------------------|--7b9---------------------7-5-----|
D:-5h7---7-------------------------|----------------------------------|
A:---------------------------------|----------------------------------|
E:---------------------------------|----------------------------------|

[Fill 12]
          G         F        G6           Dm        C/G       G7   Am/G        G
e:-----------------------------------------------------------------------------|
B:6b8r6----8b10r8----6b8r6-----10b12r10-----8b10r8-----6b8r6---/5--------------|
G:------------------------------------------------------------------7b9r7------|
D:----------------------------------------------------------------5---------5~-|
A:-----------------------------------------------------------------------------|
E:-----------------------------------------------------------------------------|

[Fill 13]
e:-------------------------------------------------------------------|
B:-5-----------------------------------------------------------------|
G:---7-7----7b9--7b9--7b9~~------------------------------------------|
D:-------7-----------------------------------------------------------|
A:-------------------------------------------------------------------|
E:-------------------------------------------------------------------|

Progression:

[Intro] x2

[Intro] x4 w/ lyrics:

Should I fall out of love, my fire in the night, [Fill 1]
To chase a feather in the wind. [Fill 2]
Within the glow that weaves a cloak of delight, [Fill 1]
There moves a thread that has no end. [Fill 2]
For many hours and days that pass ever soon, [Fill 1]
The tides have caused the flame to dim. [Fill 2]
At last the arm is straight, the hand to the loom, [Fill 1]
Is this the end or just begin? [Fill 2]

[Riff 1] x2 w/ chorus:

[Strum chords along with chord changes]:

(Also play [Fill 3] x1)

 C             Em/B             Am      Am/G  G           F  G7
All of my love, all of my love, all of my love to you now.

 C             Em/B                Am            G           F
All of my love, all of my love, oh all of my love to you now.

[Intro] x2 w/ lyrics:

The cup is raised the toast is made yet again, [Fill 1]
One voice is clear above the din. [Fill 4]
Proud Arian, one word my will to sustain, [Fill 1]
For me the cloth once more to spin, oh. [Fill 5]

[Riff 1] x2 w/ chorus:

[Strum chords along with chord changes]:

(Also play [Fill 6] x1)

 C             Em/B             Am      Am/G  G           F  G7
All of my love, all of my love, all of my love to you now.

 C             Em/B                Am            G             F
All of my love, all of my love, oh all of my love to you child.

Next section:

Bb Bb Bb  F F F  Bb Bb Bb  F F F  Bb Bb Bb  F   C  C [Fill 7]
Bb Bb Bb  F F F  Bb Bb Bb  F F F  Bb Bb Bb  F   C  C [Fill 8]
Bb Bb Bb  F F F  Bb Bb Bb  F F F  Bb Bb Bb  F  Dm Dm Dm   C

[Riff 2] x1 w/ [Fill 9] over chord changes

Trumpet synth solo over [Intro] x2

String synth and gtr over [Intro] x2

Repeat four times: 3rd time with [Fill 1], 4th time with [Fill 4]

e:-------------------------------------------------------------------|
B:-----12-13---15b17---15b17---15-15~---13-12------------------------|
G:o-14----------------------------------------14~--12-10-12-/14~~---o|
D:o-----------------------------------------------------------------o|
A:-------------------------------------------------------------------|
E:-------------------------------------------------------------------|

Then:

Bb Bb Bb  F F F  Bb Bb Bb  F F F  Bb Bb Bb  F   C  C [Fill 10]
Bb Bb Bb  F F F  Bb Bb Bb  F F F  Bb Bb Bb  F   C  C [Fill 11]
Bb Bb Bb  F F F  Bb Bb Bb  F F F  Bb Bb Bb  F  Dm Dm Dm   C

[Riff 2] x1 w/ [Fill 12] over chord changes

[Intro] x2 w/ lyrics:

Yours is the cloth, mine is the hand that sews time, [Fill 1]
His is the voice that lies within. [Fill 4]
Ours is the fire all the warmth we can find, [Fill 1]
He is a feather in the wind, oh. [Fill 13]

[Riff 1] x2 w/ chorus:

[Strum chords along with chord changes]:

(Also play [Fill 6] sim.)

 C             Em/B             Am      Am/G  G           F  G7
All of my love, all of my love, all of my love to you now.

 C             Em/B                Am            G           F
All of my love, all of my love, oh all of my love to you now.

[Riff 3] until fadeout as follows:

(Also play [Fill 3] and [Fill 6] sim., but since the key changes one
        whole step up to D, play all notes 2 frets higher, I'd tab it
        here but it's so easy to figure out once you know the basic
        pattern)

A A7 | D             F#m              Bm        Bm/A      A A/G G     A7
      All of my love, all of my love, all of my......love.........love...


Comments