Leaders - Deal With It Chords & Tabs

 

Deal With It Chords & Tabs

Leaders Chords & Tabs

Version: 1 Type: Tab 0 ratings
1 star 2 stars 3 stars 4 stars 5 stars
comments

Deal With It Tab

E----------------------l-------|
B----------------------l-------|
G----------------------l-------|
D-----3----5----7----5-l-------|  x. 2 times
A---o-3--0-5--0-7--0-5-l-------|
E----------------------l-------|

E-----------------------l------|
B-----------------------l------|
G----3----5----7-----5-l-------|
D--0-3--0-5--0-7--0-5-l--------|  x. 2 times
A----------------------l-------|
E----------------------l-------|

E--------------------------------------------------------------|
B--------------------------------------------------------------|
G--------------------------------------------------------------|
D- 7-7-7-7-7-7-7-7-5-5-5-5-5-5-5-3-3-3-3-3-3-3-5-5-5-5-5-5-5---|
A--------------------------------------------------------------|
E--------------------------------------------------------------|
[ Tab from: http://www.guitartabs.cc/tabs/l/leaders/deal_with_it_tab.html ]
E--------------------------------------------------------------|
B--------------------------------------------------------------|
G--------------------------------------------------------------|
D3-3-3-3-3-3-3-3-5-5-5-5-5-5-5-7-7-7-7-7-7-7-5-5-5-5-5-5-5-----|
A--------------------------------------------------------------|
E--------------------------------------------------------------|

E----------------l---------------l---------------l---------------------|
B----------------l---------------l---------------l---------------------|
G---------------l----------------l---------------l---------------------|
D-7-7-7-7-7-7-7-l-5-5-5-5-5-5-5-l-3-3-3-3-3-3-3-l-5-5-5-5-5-5-5---x----| 2 times
A-5-5-5-5-5-5-5-l-3-3-3-3-3-3-3-l-5-5-5-5-5-5-5-l-7-7-7-7-7-7-7--------|
E---------------l----------------l-----------------l-------------------|

THEN REPEAT FIRST GROUP 1 TIME
Comments