Leadbelly - Goodnight Irene Chords & Tabs

 

Goodnight Irene Chords & Tabs

Leadbelly Chords & Tabs

Version: 1 Type: Tab 0 ratings
1 star 2 stars 3 stars 4 stars 5 stars
comments

Goodnight Irene Tab

Here goes tune From low to high: B E A D F# B

---2--2----2--2----2----------3-3-----3---------3--3----3----------2-2--
---3--3----3--3----3----------2-2-----2---------2--2----2----------3-3--
---2--2----2--2----2----------2-2-----2---------2--2----2----------2-2--
---------0-------------4-3-2--2-2-----2--0-1-2--2--2----2--------0------
-0---------------0------------------0----------------0-----0-2-4--------
------------------------------------------------------------------------
[ Tab from: http://www.guitartabs.cc/tabs/l/leadbelly/goodnight_irene_tab.html ]
--2---------2-2---2-----------1-1------------3-3----3----------2-2------
--3---------3-3---3-----------0-0----0-------2-2----2----------3-3------
--2---------2-2---2---------0-0-0----0-------2-2----2----------2-2------
----------0----------0-2-4----0-0----0-------2-2--2-2--------0----------
0---0-2-4-------0------------------2----2--0-----------0-2-4------------
------------------------------------------------------------------------

This riff repeats throughout the entire song and the tempo increases as the song progresses.

The string gauges I use are:
1st .014
2nd .019
3rd .022
4th .038
5th .048
6th .070

Enjoy(Descendants)
Sherman
Comments