Le Tigre - Deceptacon Chords & Tabs

 

Deceptacon Chords & Tabs

Le Tigre Chords & Tabs

Version: 1 Type: Tab 2 ratings
1 star 2 stars 3 stars 4 stars 5 stars
comments

Deceptacon Tab

Artist: Le Tigre
Song Title: Deceptacon

this is my first sub. so take it easy.
 
this riff is played throughout the song.
GUITAR 1
-]----------------------------------------------------------[
-]----------------------------------------------------------[
-]----------------------------------------------------------[
-]------------------------------9--9--9-9-9---7---7--7-7-7--[
-]-9--9--9-9-9---7---7--7-7-7---7--7--7-7-0---5---5--5-5-0--[
-]-7--7--7-7-0---5---5--5-5-0-------------------------------[
[ Tab from: http://www.guitartabs.cc/tabs/l/le_tigre/deceptacon_tab.html ]
GUITAR 2
Section 1   if you can play this part in trem. picking, do it.
-]-----------------------------------------------------10-------[
-]--12-12-10-12-12---12-12-9-12-12---12-12-12-12-12-12----12-12-[
-]--------------------------------------------------------------[
-]--------------------------------------------------------------[
-]--------------------------------------------------------------[
-]--------------------------------------------------------------[

section 2
-]---------------------]
-]---------------------]
-]---------------------]   
-]---12--9------9--12--]   play 4 times. 
-]----------12---------]
-]---------------------]

section 3 in this section there is no question about it. you gotta do trem.
-]--------------------12121212-10101010------]
-]--12121212-10101010-------------------12---]       
-]-------------------------------------------]
-]-------------------------------------------]   play 4 times.
-]-------------------------------------------]
-]-------------------------------------------]

the rest of guit. 2 is : section 1
                         section 3
                         section 2
                         section 3.  listen to the song a few times to
                                     get the timing and structure.
hope you like it. thanks. Van C


Comments