Lazlo Bane - Superman Chords & Tabs

 

Superman Chords & Tabs

Lazlo Bane Chords & Tabs

Version: 2 Type: Tab 0 ratings
1 star 2 stars 3 stars 4 stars 5 stars
comments

Superman Tab

Tabbed by:emo-core@web.de
Artist:Lazlo Bane
Song:Superman (Scrubs Theme)

Banjo or guitar:  use standard guitar tuning
This is the intro and chorus played by the banjo.If you have one, use it and you'll
get a very good result, but of course you can use a guitar too:)
[ Tab from: http://www.guitartabs.cc/tabs/l/lazlo_bane/superman_tab_ver_2.html ]
e---2--------2---------------2-----------1-----------|
b--------------------------------2-------------------|
g----------------------------------------------------|
d-----4--------4-------------------4---------4-------|
a----------------------------------------------------|
e----------------------------------------------------|

e---2---------2----------6---4---2---4---------------|
b----------------------------------------------------|
g----------------------------------------------------|
d--------4----------4--------------------------------|
a----------------------------------------------------|
e----------------------------------------------------|
Comments