Lazlo Bane - Superman Chords & Tabs

 

Superman Chords & Tabs

Lazlo Bane Chords & Tabs

Version: 1 Type: Tab 0 ratings
1 star 2 stars 3 stars 4 stars 5 stars
comments

Superman Tab

I just figured the chorus out by ear.  I'm pretty sure it's right.
WATCH THE SHOW!!!  Tuesdays at 9:30 EST, NBC!


e----------------------------------------------------------------------------------------------------|
b---------------------0--------------------------------0---------------------------------------------|
g---0-------2--------------------0---------2-------------------2---------0--------2---------0--------|
d----------------------------------------------------------------------------------------------------|
a----------------------------------------------------------------------------------------------------|
e----------------------------------------------------------------------------------------------------|
    No      I       Can't       Do        This        A--     All        On      My        Own

[ Tab from: http://www.guitartabs.cc/tabs/l/lazlo_bane/superman_tab.html ]
e-------------------------------------------------------------------------------------|
b------------0----------------------------0----------3--------0-----------------------|
g---0----------------2---------0----------------------------------------2---------0---|
d-------------------------------------------------------------------------------------|
a-------------------------------------------------------------------------------------|
e-------------------------------------------------------------------------------------|
    No      I--      I        Know       I'm         No       Su   -   per   -   man

e-------------------------------------------------|
b----0----------3--------0------------------------|
g-----------------------------------2---------0---|
d-------------------------------------------------|
a-------------------------------------------------|
e-------------------------------------------------|
    I'm         No       Su   -    per    -   man
Comments