Lawrence Arms - Another Boring Story Chords & Tabs

 

Another Boring Story Chords & Tabs

Lawrence Arms Chords & Tabs

Version: 1 Type: Bass Tab

Another Boring Story Bass Tab

   
The Lawrence Arms - Another boring story

Tabbed by Max Guhlke

G|-----------|
D|-----------|
A|-444444444-|
E|-----------|

2x
G|-------------------------------------------------------|
D|-------------------------------------------------------|
A|-4444444000000022222220000000-222222242/40000000000020-|
E|-------------------------------------------------------|

2x
G|-------------------------------------------------------|
D|----------------666666-666666-444444-444444-222222-424-|
A|-777777777777774------4------2------2------0-----------|
E|-------------------------------------------------------|

G|-------------------------------------------|
D|-------------------------------------------|
A|-77777772222222200000000-2024--44440-----0-|
E|-------------------------------------0000--|
[ Tab from: http://www.guitartabs.cc/tabs/l/lawrence_arms/another_boring_story_btab.html ]
G|----------------------------------------------------------------------------------|
D|----------------------------------------------------------------------------------|
A|-444444444444442222222222222444444444444440000000000000-4444444222222200000002222-|
E|----------------------------------------------------------------------------------|

G|-----------------------------42----------------------------24-|
D|----2---4----2---4----2---4-2-----2---4----2---4----2---4-2---|
A|-444-222--444-222--444-222-0---444-222--444-222--444-222-0----|
E|--------------------------------------------------------------|

play this 4 times (maybe there are some small changes but u can figure out by yourself)
G|-----------------------------------------------------------|
D|----------------------------2---------------------------22-|
A|-444444444444222000000000000-444444444444222000000000000---|
E|-----------------------------------------------------------|

4x
G|----------------|
D|---6--6--99--77-|
A|-44-444-7--7-77-|
E|----------------|

3x                                 1x
G|--------------------------------|------------------------------------|
D|-666666-66642-22222222222-4-----|-666666-66642-222-------------------|
A|-444444-44420-00000000000--7777-|-444444-44420-000----------22222222-|
E|---------------------------0000-|------------------00000000-00000000-|

4x
G|----------------|
D|---6--6--99--77-|
A|-44-444-7--7-77-|
E|----------------|