Lauryn Hill - Tell Him Chords & Tabs

 

Tell Him Chords & Tabs

Lauryn Hill Chords & Tabs

Version: 1 Type: Tab 0 ratings
1 star 2 stars 3 stars 4 stars 5 stars
comments

Tell Him Tab

"TELL HIM"
BY: LAURYN HILL
TABED BY: STEVE ESPINOZA (flaminghot82@yahoo.com)


verse 1:
-------------------------------------------------------------------------------------------------|
-------------------------------------------------------------------------------------------------|
-6-------6-----6-----6-------6----5-------5-----5------5-------5----3-------3-----3-----3------3-|
-----6-----6------6-----6-------------6-----6------6------6-------------4-----4-----4-----4------|
------8-----8------8-----8-------------6-----6------6------6-------------4-----4-----4-----4-----|
-------------------------------------------------------------------------------------------------|

------------------------------------|
------------------------------------|
-5-------5-----5------5------5------| repet
-----6-----6------6-----6-----------|
------6-----6------6-----6----------|
------------------------------------|
[ Tab from: http://www.guitartabs.cc/tabs/l/lauryn_hill/tell_him_tab.html ]
verse 2:  (bridge)
-------------------------------------------------------------------------------------------------|
-------------------------------------------------------------------------------------------------|
--6--6------6---6------6-----6-----5--5------5---5------5-----5-----3--3------3---3------3-----3-|
--6--6-----6------6------6---------6--6-----6------6------6---------4--4-----4------4------4-----|
--8--8----8---------8------8-------6--6----6---------6------6-------4--4----4---------4------4---|
-------------------------------------------------------------------------------------------------|
               i'll never be jealous.........   and i won't be too kind..........

------------------------------------|
------------------------------------|
--3--3------3---3------3-----3------| repet 2x
--4--4-----4------4------4----------|
--4--4----4---------4------4--------|
------------------------------------|
Comments