Lauren Christy - Steep Chords & Tabs

 

Steep Chords & Tabs

Lauren Christy Chords & Tabs

Version: 1 Type: Tab 0 ratings
1 star 2 stars 3 stars 4 stars 5 stars
comments

Steep Tab

Song:Steep
Artist:Lauren Christy
Tabbed by:Joery Duco
"Sorry intro lang muna...kukunin ko muna ang verse n'ya"
this is dedicated to all my friends, specially to Rhoanne...
Check n'yo lang kung accurate ba...
[ Tab from: http://www.guitartabs.cc/tabs/l/lauren_christy/steep_tab.html ]
|-12-9-------12-9--12-12-17-16-14---|
|--------9h10-----------------------|
|-----------------------------------|
|-----------------------------------|
|-----------------------------------|
|-----------------------------------|

|-------12-9--12-12-14-----10-9------------|
|-9h10-----------------10-------10---10s12-|
|----------------------------------9-------|
|------------------------------------------|
|------------------------------------------|
|------------------------------------------|
For infos, suggestions, comments about me and my song, just e-mail me at Joery_brinch@yahoo.com
Thanks to all!
Comments