Laura Stevenson And The Cans - Barnacles Chords & Tabs

 

Barnacles Chords & Tabs

Laura Stevenson And The Cans Chords & Tabs

Version: 1 Type: Tab 0 ratings
1 star 2 stars 3 stars 4 stars 5 stars
comments

Barnacles Tab

   
Barnacles by Laura Stevenson and the Cans

Capo 2nd fret

Intro/Outro:
   G                          Em
E|-3-----------3------------|-0-----------0------------|
B|-3-----------3------------|-0--0-0-0-0--0--0-0-0-0---|
G|-0--0-0-0-0--0--0-0-0-0---|-0--0-0-0-0--0--0-0-0-0---|
D|-0--0-0-0-0--0--0-0-0-0---|-2--2-2-2-2--2--2-2-2-2---|
A|-2--2-2-2-2--2--2-2-2-2---|-2--2-2-2-2--2--2-2-2-2---|
E|-3--3-3-3-3--3--3-3-3-3---|-0--0-0-0-0--0--0-0-0-0---|

   Am                          D
E|-0-----------0-------------|-2--0-0-0-0--0h2-2-2-2-2---|
B|-1--0-0-0-0--0h1-1-1-1-1---|-3--3-3-3-3--3---3-3-3-3---|
G|-2--2-2-2-2--2---2-2-2-2---|-2--2-2-2-2--2---2-2-2-2---|
D|-2--2-2-2-2--2---2-2-2-2---|-0--0-0-0-0--0---0-0-0-0---|
A|-0--0-0-0-0--0---0-0-0-0---|---------------------------|
E|---------------------------|---------------------------|

Main Part (verses):
   G                          Em
E|-3-----------3------------|-0-----------0------------|
B|-3-----------3------------|-0--0-0-0-0--0--0-0-0-0---|
G|-0--0-0-0-0--0--0-0-0-0---|-0--0-0-0-0--0--0-0-0-0---|
D|-0--0-0-0-0--0--0-0-0-0---|-2--2-2-2-2--2--2-2-2-2---|
A|-2--2-2-2-2--2--2-2-2-2---|-2--2-2-2-2--2--2-2-2-2---|
E|-3--3-3-3-3--3--3-3-3-3---|-0--0-0-0-0--0--0-0-0-0---|
[ Tab from: http://www.guitartabs.cc/tabs/l/laura_stevenson_and_the_cans/barnacles_tab.html ]
   Am                         D
E|-0-----------0------------|-2--2-2-2-2--2h3-3-3-3-3---|
B|-1--1-1-1-1--1--1-1-1-1---|-3--3-3-3-3--3---3-3-3-3---|
G|-2--2-2-2-2--2--2-2-2-2---|-2--2-2-2-2--2---2-2-2-2---|
D|-2--2-2-2-2--2--2-2-2-2---|-0--0-0-0-0--0---0-0-0-0---|
A|-0--0-0-0-0--0--0-0-0-0---|---------------------------|
E|--------------------------|---------------------------|


G            Em        Am       D
Scrape these barnacles,   I am whole again.
G          Em            Am      D
   Finally purified or whatever that means
G           Em          Am                D
   Put your back in it,   they laid their roots deep
G                   Em          Am            D          C
Within the paint. Free me, free me from their teeth, but don't cut too deep.

(Repeat chord progression)
Scrape these barnacles, I am utterly yours
Take my lack of control and swallow it whole
Break my excuses to leave over your bony knees
And scrub the sweat away, make me clean
Please pull the bad dreams out of me

Scrape these barnacles, I am utterly yours
Take my lack of control and swallow it whole
Break my excuses to leave over your bony knees
And free me, free me, free me, free me, I am utterly yours

(The ending is: G  Em  Am  Cm(barre chord) )


Thats how the whole song goes. Theres the stopping and starting parts but its still the 
same chord progression.
If you are playing to the album version of the song
after the horn break theres a part that goes: C  G  C  G  C  before going back into the 
Main Part.
I hope this is helpful
Comments