Late - Winnebago Chords & Tabs

 

Winnebago Chords & Tabs

Late Chords & Tabs

Version: 1 Type: Tab 0 ratings
1 star 2 stars 3 stars 4 stars 5 stars
comments

Winnebago Tab

   
Foo Fighters - Winnebago
(Normal Tuning)


Verse
(Gtr. 1)
e||--0--0-0-0-0--0--0-0-0-0--0--0-0-0-0---------------------||
B||--5--5-5-5-5--5--5-5-5-5--5--5-5-5-5---------------------||
G||--4--4-4-4-4--4--4-4-4-4--4--4-4-4-4---------------------||
D||--3--3-3-3-3--3--3-3-3-3--3--3-3-3-3---------------------||
A||--4--4-4-4-4--4--4-4-4-4--4--4-4-4-4--2-4-2-4-2-4-2-4-2--||
E||---------------------------------------------------------||
[ Tab from: http://www.guitartabs.cc/tabs/l/late/winnebago_tab.html ]
(Gtr. 2)
e||-----|-----||
B||-----|-----||
G||--4--|--0--||
D||-----|-----||
A||-----|-----||
E||-----|-----||
Rapidly pick these notes lot's of times


Chorus
G    A F


Bridge
e||------------------------------------------------------------------||
B||------0-----0-----0-----0-----0-----------------------------------||
G||-----------------------------------0---0----0---------------------||
D||---------------------------------------0---------8-8-8-0-8-0-8-0--||
A||--4-4---2-2---7-7---2-2---3-3----------x---------8-8-8---8---8----||
E||-----------------------------------3-3-3---------6-6-6---6---6----||

___________________________
Comments