Last Night Rival - When Im Gone Chords & Tabs

 

When Im Gone Chords & Tabs

Last Night Rival Chords & Tabs

Version: 1 Type: Tab 0 ratings
1 star 2 stars 3 stars 4 stars 5 stars
comments

When Im Gone Tab

   
-------------------------------------------------------------------------------
			    When I'm Gone - Last Night Rival
-------------------------------------------------------------------------------

Tuning:DADGBe
Last Night Rival Just got done recording thier full length CD through Rut Records

Song order:
Intro
Chorus
Verse
Chorus
Verse Chorus
Bridge
Chorus
Solo

Intro/Chorus/Verses/Bridge
e|-------------------------------------------------------------------|
B|-------------------------------------------------------------------|
G|--4-4-4-4-4-4-4-4-4-4-4-4-4-4-4-4-7-7-7-7-7-7-7-7-7-7-7-7-7-7-7-7--|
D|--4-4-4-4-4-4-4-4-4-4-4-4-4-4-4-4-7-7-7-7-7-7-7-7-7-7-7-7-7-7-7-7--|
A|--2-2-2-2-2-2-2-2-2-2-2-2-2-2-2-2-5-5-5-5-5-5-5-5-5-5-5-5-5-5-5-5--|
D|-------------------------------------------------------------------|

e|---------------------------------------------------------------------|
B|---------------------------------------------------------------------|
G|---------------------------------------------------------------------|
D|--7-7-7-7-7-7-7-7-7-7-7-7-7-7-7-7-5-5-5-5-5-5-5-5-5-5-5-5-5-5-5-5-5--|
A|--7-7-7-7-7-7-7-7-7-7-7-7-7-7-7-7-5-5-5-5-5-5-5-5-5-5-5-5-5-5-5-5-5--|
D|--7-7-7-7-7-7-7-7-7-7-7-7-7-7-7-7-5-5-5-5-5-5-5-5-5-5-5-5-5-5-5-5-5--|

Lead For Verses (Palm Muted)
e|--10-10-10-10-9-9-9-9-7-7-7-7-----------------------------------------|
B|------------------------------10-10-10-10-8-8-8-8-7-7-7-7-------------|
G|----------------------------------------------------------9-9-9-9-7-7-|
D|----------------------------------------------------------------------|
A|----------------------------------------------------------------------|
D|----------------------------------------------------------------------|
[ Tab from: http://www.guitartabs.cc/tabs/l/last_night_rival/when_im_gone_tab.html ]
e|---------------------------------------------------------------------|
B|-----8-8-8-8-7-7-7-7-----------------8-8-8-8-7-7-7-7-----------------|
G|-7-7-----------------9-9-9-9-7-7-7-7-----------------9-9-9-9-7-7-7-7-|
D|---------------------------------------------------------------------|
A|---------------------------------------------------------------------|
D|---------------------------------------------------------------------|
Repeat That til you get the jist of it

Solo
e|--10-10-10-10-9-9-9-9-10-9------------12-14-14-14-14-12-12-12-12-10-10-|
B|---------------------------10------10----------------------------------|
G|------------------------------12-9-------------------------------------|
D|-----------------------------------------------------------------------|
A|-----------------------------------------------------------------------|
E|-----------------------------------------------------------------------|

e|-10-10-9-9-9-9---------10p7-9p7--------10p7-9p7---------10p7-9p7-----|
B|---------------8p7-8p7----------8p7-8p7----------8p7-8p7---------8p7-|
G|---------------------------------------------------------------------|
D|---------------------------------------------------------------------|
A|---------------------------------------------------------------------|
D|---------------------------------------------------------------------|

e|-----10p7-9p7------------------15t-10p7-14t-9p7----------------------|
B|-8p7------------15t-8p7-15t-8p7--------------------REPEAT TIL END----|
G|---------------------------------------------------------------------|
D|---------------------------------------------------------------------|
A|---------------------------------------------------------------------|
D|---------------------------------------------------------------------|

e|---------------------------------------------------------------------------|
B|---------------------------------------------------------------------------|
G|---------------------------------------------------------------------------|
D|---------------------------------------------------------------------------|
A|---------------------------------------------------------------------------|
E|---------------------------------------------------------------------------|

| t  tap
| /  slide up
| \  slide down
| h  hammer-on
| p  pull-off
| ~  vibrato
| +  harmonic
| x  Mute note
===============================================================================
Comments