Lash - Take Me Away Chords & Tabs

 

Take Me Away Chords & Tabs

Lash Chords & Tabs

Version: 4 Type: Tab 0 ratings
1 star 2 stars 3 stars 4 stars 5 stars
comments

Take Me Away Tab

   
Artist: Lash 
Song: "Take me away"
standard tuning: e a d g b e

Tabbed by Deanna
dina_420@hotmail.com

This is a really simple song and it sounds great. the song was remade for the
movie "Freaky Friday" and was sung by Christine Vidal. there are 2 guitars in
this song, but they both play the same riff so you might as well just play this
song with one guitar. 

"Yeah..."
(Intro) mute chords 
GTR 1:

e--4-4-x-x-x-x-x-x--4-4-x-x-x-x-x-x--4-4-x-x--4-4-x-x--4-4-4-4-4-4-4--
b--4-4-x-x-x-x-x-x--4-4-x-x-x-x-x-x--4-4-x-x--4-4-x-x--4-4-4-4-4-4-4--
g--2-2-x-x-x-x-x-x--2-2-x-x-x-x-x-x--2-2-x-x--2-2-x-x--2-2-2-2-2-2-2--
d---------------------------------------------------------------------
a---------------------------------------------------------------------
e---------------------------------------------------------------------

00:08 
GTR 1:

e--------------------------------------------------------------------------
b--------------------------------------------------------------------------
g--------------------------------------------------------------------------
d--------------------------------------------------------------------------
a-------0-1-2----3-2-0-2-2-1-0---------------------------------------------
e--2-2---------------------------------------------------------------------
(x2)
[ Tab from: http://www.guitartabs.cc/tabs/l/lash/take_me_away_tab_ver_4.html ]
00:12 "Get up..."
(Verse)
GTR 2 or Bass:
e--------------------------------------------------------------------------
b--------------------------------------------------------------------------
g--------------------------------------------------------------------------
d--------------------------------------------------------------------------
a-------0-1-2----3-2-0-2-2-1-0---------------------------------------------
e--2-2---------------------------------------------------------------------(x4)

00:23 "I'm too fit..."
GTR 2:
e---------------
b---------------
g---------------
d---------------
a-------0-1-2---
e--2-2----------

00:28 "so I, so I..."
GTR 1:
e---------------------
b---------------------
g---------------------
d---------------------
a--3-2-0-2-2-1-0------
e---------------------


00:30 "On and on..."
(Prechorus)
e--4-4-x-x-x-x-x-x--4-4-x-x-x-x-x-x--4-4-x-x--4-4-x-x--4-4-4-4-4-4-4--
b--4-4-x-x-x-x-x-x--4-4-x-x-x-x-x-x--4-4-x-x--4-4-x-x--4-4-4-4-4-4-4--
g--2-2-x-x-x-x-x-x--2-2-x-x-x-x-x-x--2-2-x-x--2-2-x-x--2-2-2-2-2-2-2--
d---------------------------------------------------------------------
a---------------------------------------------------------------------
e---------------------------------------------------------------------

00:38
(Chorus)
GTR 1 & 2
e---------------          ----------
b---------------          ----------
g--7-----4--2---          --6-6-6---
d--7--4--4--2--- (x2)     --6-6-6---
a--5--4--2--0---          --4-4-4---
e-----2---------          ----------

(Post Chorus)
GTR 1:
e--------------------------------------------------------------------------
b--------------------------------------------------------------------------
g--------------------------------------------------------------------------
d--------------------------------------------------------------------------
a-------0-1-2----3-2-0-2-2-1-0---------------------------------------------
e--2-2---------------------------------------------------------------------(x3)


01:26 "Goodbye, goodbye..."
GTR 1:
e---------------------
b---------------------
g---------------------
d---------------------
a--3-2-0-2-2-1-0------
e---------------------

Thats it!
Comments