Lash - Take Me Away Chords & Tabs

 

Take Me Away Chords & Tabs

Lash Chords & Tabs

Version: 2 Type: Tab 0 ratings
1 star 2 stars 3 stars 4 stars 5 stars
comments

Take Me Away Tab

   
this my first tab but i think its correct

intro:
[ Tab from: http://www.guitartabs.cc/tabs/l/lash/take_me_away_tab_ver_2.html ]
e---------------------------------------------------------
b---------------------------------------------------------
g---------------------------------------------------------
d-5-5-x-x-x-x-x-x-x-5-5-x-x-x-x-x-x-x-5-5-x-x-5-5-x-x-x-x-
a-5-5-x-x-x-x-x-x-x-5-5-x-x-x-x-x-x-x-5-5-x-x-5-5-x-x-x-x-
e-3-3-x-x-x-x-x-x-x-3-3-x-x-x-x-x-x-x-3-3-x-x-3-3-x-x-x-x-

verse:

e---------------------------------------------------------
b---------------------------------------------------------
g---------------------------------------------------------
d-5-5-7-7-9-9---9-7-5-5---5-5-7-7-9-9---9-7-5-5-----------
a-5-5-7-7-9-9---9-7-5-5---5-5-7-7-9-9---9-7-5-5-----------
e-3-3-5-5-7-7---7-5-3-3---3-3-5-5-7-7---7-5-3-3-----------

enjoy
:-)

B-P
Comments