Lars Winnerback - Mareld Chords & Tabs

 

Mareld Chords & Tabs

Lars Winnerback Chords & Tabs

Version: 1 Type: Tab 0 ratings
1 star 2 stars 3 stars 4 stars 5 stars
comments

Mareld Tab

   
Intro och mellanspel:

   Em               Bno3             C                G                C                D6
e||3---------3-----|--2-------2-----|0---------0-----|----------------|----------------|----------------|
B||------0-------0-|------------2-4-|------1-------1-|3---------3-----|3p1-------1-----|1p0-------0-----|
G||----0-------0---|----2-4---------|----0-------0---|------0-------0-|------0-------0-|------2-------0-|
D||----------------|----------------|----------------|----0-------0---|----2-------2---|0---0-------0---|
A||----------------|2-------2-------|3-------3-------|----------------|3-------3-------|--------0-------|
E||0-------0-------|----------------|----------------|3-------3-------|----------------|----------------|

   Em                                Cmaj7            D6
e||----------------|----------------|----------------|----------------|
B||----------0-----|----------0-----|1p0-------1-----|1p0-------0-----|
G||------0-------0-|------0-------0-|------0-------0-|------2-------0-|
D||----2-------2---|----2-------2---|----2-------2---|0---0-------0---|
A||----------------|----------------|3-------3-------|--------0-------|
E||0-------0-------|0-------0-------|----------------|----------------|


Vers 1:

   G                                 Em                                Am
e||----------------|----------------|----------------|----------------|----------------|----------------|
B||----------0-----|----------0-----|----------0-----|----------0-----|----------1-----|----------1-----|
G||------0-------0-|------0-------0-|------0-------0-|------0-------0-|------2-------2-|------2-------0-|
D||----0-------0---|----0-------0---|----2-------2---|----2-------2---|----2-------2---|----2-------2---|
A||----------------|----------------|----------------|----------------|0-------0-------|0-------0-------|
E||3-------3-------|3-------3-------|0-------0-------|0-------0-------|----------------|----------------|

   D7/F#                             G                D7/F#            Em               G
e||----------------|----------------|----------------|----------------|----------------|----------------|
B||----------1-----|----------1-----|----------0-----|--1-------1-----|----------0-----|--0-------0-----|
G||------2-------2-|------2-------0-|------0-------0-|------2-------0-|------0-------0-|------0-------0-|
D||----0-------0---|----0-------0---|----0-------0---|----0-------0---|----2-------2---|0---0-------0---|
A||----------------|----------------|----------------|----------------|----------------|--------2-------|
E||2-------2-------|2-------2-------|3-------3-------|2-------2-------|0-------0-------|----------------|

   C                Am               D7/F#                             C                D/F#
e||----------------|----------------|----------------|----------------|----------------|----------------|
B||----------1-----|----------1-----|----------1-----|----------1-----|----------1-----|--3-------3-----|
G||------0-------0-|------2-------0-|------2-------2-|------2-------0-|------0-------0-|------2-------0-|
D||----2-------2---|----2-------2---|----0-------0---|----0-------0---|----2-------2---|----0-------0---|
A||3-------3-------|0-------0-------|----------------|----------------|3-------3-------|----------------|
E||----------------|----------------|2-------2-------|2-------2-------|----------------|2-------2-------|

   Em               G6               C                D7/F#
e||----------------|--0-------------|----------0-----|----------------|
B||----------0-----|------0---0---0-|--------------1-|--1-------1-----|
G||------0-------0-|----0-------0---|------0-----0---|------2-------0-|
D||----2-------2---|0-------0-------|----2-----------|----0-------0---|
A||----------------|----------------|3-------3-------|----------------|
E||0-------0-------|----------------|----------------|2-------2-------|


Vers 2:
[ Tab from: http://www.guitartabs.cc/tabs/l/lars_winnerback/mareld_tab.html ]
   G6                                Em                                Am
e||----------------|----------------|----------------|----------------|----------------|--0-------0-----|
B||----------0-----|----------0-----|----------0-----|----------0-----|----------1-----|------1-------1-|
G||------0-------0-|------0-------0-|------0-------0-|------0-------0-|------2-------2-|----2-------2---|
D||----0-------0---|----0-------0---|----2-------2---|----2-------2---|----2-------2---|----------------|
A||----------------|----------------|----------------|----------------|0-------0-------|0-------0-------|
E||3-------3-------|3-------3-------|0-------0-------|0-------0-------|----------------|----------------|

   D7                                G                D/F#             Em               G6
e||----------2-----|----------2-----|----------3-----|----------------|----------0-----|----------0-----|
B||------1-------1-|------1-------0-|------0-------0-|--3-------3-----|--------------0-|--0-----------0-|
G||----2-------2---|----2-------2---|----0-------0---|------2-------0-|------0-----0---|------0-----0---|
D||0-------0-------|0-------0-------|----------------|----0-------0---|----2-----------|0---0---0-------|
A||----------------|----------------|----------------|----------------|----------------|----------------|
E||----------------|----------------|3-------3-------|2-------2-------|0-------0-------|----------------|

   C                Am               D7/F#                             C                D/F#
e||----------------|----------------|----------------|----------------|----------------|----------------|
B||----------1-----|----------1-----|----------1-----|----------1-----|----------1-----|--3-------3-----|
G||------0-------0-|------2-------0-|------2-------2-|------2-------0-|------0-------0-|------2-------0-|
D||----2-------2---|----2-------2---|----0-------0---|----0-------0---|----2-------2---|----0-------0---|
A||3-------3-------|0-------0-------|----------------|----------------|3-------3-------|----------------|
E||----------------|----------------|2-------2-------|2-------2-------|----------------|2-------2-------|

   Em               G6               C                D7/F#
e||----------0-----|--0-------------|----------------|----------------|
B||--------------0-|------0---0---0-|--1-------1-----|--1-------1-----|
G||------0-----0---|----0-------0---|------0-------0-|------2-------0-|
D||----2-----------|0-------0-------|----2-------2---|----0-------0---|
A||----------------|----------------|3-------3-------|----------------|
E||0-------0-------|----------------|----------------|2-------2-------|


Kompletterar eventuellt med resterande verser så småningom, men de innehåller bara små variationer på de
redan utplockade verserna.


Texten:

Det är sensommar Sverige, jag är på väg härifrån
Jag kan inte förklara, Jag stänger av telefon
Ner faller löven, och bladen blir mull
Jag kanske åker till Island, jag kanske super mig full

Jag är för fattig för London, jag är för tyst för LA
Det finns en anda i Dublin, men den är skadlig för mig

[Mellanspel]

Jag glider ifrån allt, va var jag en gång?
Jag har förlorat mitt fokus, vad drömde jag om?
Jag har lånat av banken, jag har säkerhetsdörr
Jag skulle aldrig få säga, att det var enklare förr

Jag ser mig i spegeln, det är en dålig dag
Är det honom jag känner? Är det han som är jag?

[Mellanspel]

Det blåser osunda vindar, det gör mig dämpad och svag
Ja det krävs så mycket mygel, för att verka normal
Det här är tusen butiker, med vässade klor
Det kommer trötta idéer, från strama kontor

Men det är sällsamt vackert, här kommer hösten igen
Det är kallt som i stenhus, det doftar av regn

[Mellanspel]

Jag läser en tidning, jag ser vad det står
Men det är inget jag bryr mig om, ingenting jag förstår
Dom som skriver dom ljuger, allt är tvärtom
Dom skulle mörda för pengar, skandalerna "dom?"

Jag såg ett dregglande lejon, stå på toppen och sa
Jag ger bara folket, vad folket vill ha

[Mellanspel]

Rör mina händer, du måste förstå
Jag orkar inte förklara, försök att se det ändå
Det gnager ett sinne, det är som overklighet
i varje blinkande fönster, en korrupt profet

Och jag har varit i templet, där många av dom står
Dom sa: "Allt är till salu" Jag sa: "Kom älskling vi går"

[Mellanspel]

Kunde ställa mig naken, jag skulle mena en del
Men ett drägglande lejon, skulle ta det helt fel
Jag hade massor idéer, jag hade vägen klar
Jag hade tusentals frågor, å tusentals svar

Tyst ligger vägen, i rödbrund rost
Det är som mareld i havet, som allhelgonafrost

 Uttagen av: Jocke Strand
Comments