Lars Frederiksen & The Bastards - To Have And To Have Not (2) Chords & Tabs

 

To Have And To Have Not (2) Chords & Tabs

Lars Frederiksen & The Bastards Chords & Tabs

Version: 1 Type: Bass Tab 0 ratings
1 star 2 stars 3 stars 4 stars 5 stars
comments

To Have And To Have Not (2) Bass Tab

Artist: Lars Frederiksen & The BAstards
Song:   To Have And To Have Not
Album:  Lars & The Bastards (2001)
Tabbed by mauro_b (benzanotto@libero.it)

INTRO/VERSE PERT A
|-------------------------------------------------------------------|
|-------------------------------------------------------------------|
|------------------3-3-3-3-------------------------5-5-5-5----------|
|--3-3-3-3-3-3-3-3---------3-3-3-3-0-0-0-0-0-0-0-0---------3-3-3-3--|
[ Tab from: http://www.guitartabs.cc/tabs/l/lars_frederiksen_the_bastards/to_have_and_to_have_not_2_btab.html ]
VERSE PART B
|------------------5-5-5---------------------------7-7-7------------|
|--5-5-5-5-5-5-5-5-------4-5-5-5-4-2-2-2-2-2-2-2-2-------4-5-5-5-5--|
|-------------------------------------------------------------------|
|-------------------------------------------------------------------|

BRIDGE
|-----------------------------------------------------------|
|-----------------------------------------------------------|
|------------------------------------------5-5-5-5----------|
|--3-----------------------0-0-0-0-0-0-0-0---------3-3-3-3--|
Comments