Lars Frederiksen And The Bastards - Vietnam Chords & Tabs

 

Vietnam Chords & Tabs

Lars Frederiksen And The Bastards Chords & Tabs

Version: 3 Type: Tab 0 ratings
1 star 2 stars 3 stars 4 stars 5 stars
comments

Vietnam Tab

I saw the other tab on here and it didnt have my favorite part of the song.

Intro
e---------------------------------------|
b---------------------------------------|
g----------------------------5-5-5-5----|
d----------------------------5-5-5-5----|
a----------------------------3-3-3-3----|
E---5-------5-------5-------------------|(Bottom line played by Bass)

Verse
e-------------------------|
b-------------------------|
g-7-7-------3-3-----------|
d-7-7--3-3--3-3--3-3------|
a-5-5--3-3--5-5--3-3------|
E------1-1-------5-5------|
[ Tab from: http://www.guitartabs.cc/tabs/l/lars_frederiksen_and_the_bastards/vietnam_tab_ver_3.html ]
Chorus
e--------------------------------------------------------------------------------|
b--------------------------------------------------------------------------------|
g-7-7-7-7-7-7-7-7-----------------5-5-5-5-5-5-5-5-5-7-7-7-7-7-7-7-7--10-7--------|
d-7-7-7-7-7-7-7-7-3-3-3-3-3-3-3-3-5-5-5-5-5-5-5-5-5-7-7-7-7-7-7-7-7--10-7-10-7---|
a-5-5-5-5-5-5-5-5-3-3-3-3-3-3-3-3-3-3-3-3-3-3-3-3-3-5-5-5-5-5-5-5-5--8--9-10-7---|
E-----------------1-1-1-1-1-1-1-1-----------------------------------------8-8--9-|


Outro
e---------------------------------------|
b---------------------------------------|
g---------------------------------------|
d---------------------------------------|
a--5-5-7h8p7-5---5---5-7-7-5-4-5--------|
E--------------8---8--------------------|

The outro is played in the background of the chorus.  Although it sounds best on a 2nd 
it also sounds good on bass.  Also, i dont have the solo, but the 'verse' part is played 
one guitar while the 2nd guitar takes the solo.
Comments