Lars Frederiksen And The Bastards - Marie Marie Chords & Tabs

 

Marie Marie Chords & Tabs

Lars Frederiksen And The Bastards Chords & Tabs

Version: 1 Type: Tab 0 ratings
1 star 2 stars 3 stars 4 stars 5 stars
comments

Marie Marie Tab

   
Artist: Lars Frederiksen & The Bastards
Album: The Viking
Track: Marie Marie

ihave_a_d_d@hotmail.com

Intro Chord
As best i can tell...

|----------|
|-----6----|
|-----7----|
|-----7----|
|----------|
|----------|

Verse Chords |Chorus
|------------|------------|
|------------|------------|
|----7-5-7---|-----7------|
|--5-7-5-7-5-|-----7------|
|--5-5-3-5-5-|-----5------|
|--3-------3-|------------|


1st Solo

"Watch me boys watch me!"
|--33332/332/332/333333------------------555555-33---/10-10-8-7-8-10----|
|--33332/332/332/333333-0-1-3-3-0-1-3-3--555555-33---/10-10-8-7-8-10----|
|-----------------------------------------------------------------------|
|-----------------------------------------------------------------------|
|-----------------------------------------------------------------------|
|-----------------------------------------------------------------------|

[ Tab from: http://www.guitartabs.cc/tabs/l/lars_frederiksen_and_the_bastards/marie_marie_tab.html ]
|--10-10-8-7-8---/88-11-11--8-8-10-10-13-13--10-10\333/666-3------------|
|--10-10-8-7-8---/88-10-10--8-8-10-10-12-12--10-10\333/555-3------------|
|-----------------------------------------------------------------------|
|-----------------------------------------------------------------------|
|-----------------------------------------------------------------------|
|-----------------------------------------------------------------------|


2nd Solo
|--33332/332/332/333333-/3-/4-/5-/6-/7-8--10-7-8-7-10--13-13-13-13-13---|
|--33332/332/332/333333-/3-/4-/5-/6-/7-8--10-7-8-7-10--12-12-12-12-12---|
|-----------------------------------------------------------------------|
|-----------------------------------------------------------------------|
|-----------------------------------------------------------------------|
|-----------------------------------------------------------------------|

|--10-10-8-6-5-88--10-10-13-13-10-10---333/666-3------------------------|
|--10-10-8-6-5-88--10-10-12-12-10-10---333/555-3------------------------|
|-----------------------------------------------------------------------|
|-----------------------------------------------------------------------|
|-----------------------------------------------------------------------|
|-----------------------------------------------------------------------|
Comments