Lars Frederiksen And The Bastards - Dead American Chords & Tabs

 

Dead American Chords & Tabs

Lars Frederiksen And The Bastards Chords & Tabs

Version: 1 Type: Tab 0 ratings
1 star 2 stars 3 stars 4 stars 5 stars
comments

Dead American Tab

#----------------------------------PLEASE NOTE---------------------------------#
#This file is the author's own work and represents their interpretation of the #
#song. You may only use this file for private study, scholarship, or research. #
#------------------------------------------------------------------------------#

Song: Dead american
Artists: Lars Frederiksen and the bastards
Album: Lars Frederiksen and the bastards

Intro
e|-----------------------------------------------| x2
B|-----------------------------------------------|
G|----------------------8-8-------5-5-------7-7--| 
D|--5-5-------8-8-------8-8-------5-5-------7-7--|
A|--5-5-------8-8-------6-6-------3-3-------5-5--|
E|--3-3-------6-6--------------------------------|
[ Tab from: http://www.guitartabs.cc/tabs/l/lars_frederiksen_and_the_bastards/dead_american_tab.html ]
Verse
e|-----------------------------------------------------------------------| x4
B|-----------------------------------------------------------------------|
G|------------------------------------8-8-8-8-8-8-8-8--5-5-5-5--7-7-7-7--|
D|--5-5-5-5-5-5-5-5--8-8-8-8-8-8-8-8--8-8-8-8-8-8-8-8--5-5-5-5--7-7-7-7--|
A|--5-5-5-5-5-5-5-5--8-8-8-8-8-8-8-8--6-6-6-6-6-6-6-6--3-3-3-3--5-5-5-5--|
E|--3-3-3-3-3-3-3-3--6-6-6-6-6-6-6-6-------------------------------------|

Chorus
e|-------------------------------------| x4
B|-------------------------------------|
G|--5-5-5-5----------------------------|
D|--5-5-5-5--5-5-5-5--3-3-3-3-3-3-3-3--|
A|--3-3-3-3--5-5-5-5--3-3-3-3-3-3-3-3--|
E|-----------3-3-3-3--1-1-1-1-1-1-1-1--|

Interlude (it's only a feedback)

Intro
Verse
Chorus
Intro
Verse
Chorus
Interlude
Chorus


For questions: mc_call@email.it
Comments