Lars Frederiksen And The Bastards - Dead American Chords & Tabs

 

Dead American Chords & Tabs

Lars Frederiksen And The Bastards Chords & Tabs

Version: 1 Type: Bass Tab 0 ratings
1 star 2 stars 3 stars 4 stars 5 stars
comments

Dead American Bass Tab

#----------------------------------PLEASE NOTE---------------------------------#
#This file is the author's own work and represents their interpretation of the #
#song. You may only use this file for private study, scholarship, or research. #
#------------------------------------------------------------------------------#

Song: Dead american
Artists: Lars Frederiksen and the bastards

Intro
G------------------------------------------ x2
D------------------------------------------
A----------------------66--------33----55--
E--33--------66----------------------------
[ Tab from: http://www.guitartabs.cc/tabs/l/lars_frederiksen_and_the_bastards/dead_american_btab.html ]
Verse
G----------------------------------------------------------------------- x4
D-----------------------------------------------------------------------
A------------------------------------6-6-6-6-6-6-6-6--3-3-3-3--5-5-5-5--
E--3-3-3-3-3-3-3-3--6-6-6-6-6-6-6-6-------------------------------------

Chorus
G------------------------------------------------------------------------ x2
D----------------------------------------------5-5-5-5--3-3-3-3-3-3-3-3--
A--3-3-3-3----------------------------3-3-3-3----------------------------
E-----------3-3-3-3--1-1-1-1-1-1-1-1-------------------------------------

Interlude
G---------------------------------------------------------------------- x4
D----------------------------------------------------------------------
A-------------------7-7-7-7-7-7-7-7--6-6-6-6-6-6-6-6--4-4-4-4-4-4-4-4--
E--6-6-6-6-6-6-6-6-----------------------------------------------------


Intro
Verse
Chorus
Intro
Verse
Chorus
Interlude
Chorus


For questions: mc_call@email.it
Comments