Larlee Reuben - El Cielo Vacio Chords & Tabs

 

El Cielo Vacio Chords & Tabs

Larlee Reuben Chords & Tabs

Version: 1 Type: Tab 0 ratings
1 star 2 stars 3 stars 4 stars 5 stars
comments

El Cielo Vacio Tab

/=slide
Harmonic



Intro 1

e----------0-8-7------------7-5------------5-3-2-0----------------------0-8-7-------------5-2-3-2-0------------------------------
B-0-5-7-8--------8-7-5-7--7-----8-7-5-4--4---------0-4-0-1-1-0-0-5-7-8--------8-7-5-/7--7-----------4--1-1-0-0-1-4-1-------------
G--------------------------------------------------------------------------------------------------------------------2-/4--------
D--------------------------------------------------------------------------------------------------------------------------------
A-------------------------------0-------------------------------------------------------------3--------------2-------------0-----
E-0--------------7-----------------------------3-----2---------0-------------------------------------------------------------3-2-

Intro 2

e-----------------
B-0-5-7-5---------
G---------------------
D---------------------
A---------------------
E-0-------------------

Verse

e---------------------------------
B---------------------------------
G---------7---5-------4-5-----2-4-
D-----5-------------4-------2-----
A-7-7---7---7---7-5-------4-------
E---------------------------------





Chorus

e-0---0-0--0-0--2-0--2--0-0--2---2-2--2-2--3-2--3--2-2--2---2-2--2-2--5-2--5--2-2--3---3-3--3-3--3-3--3--3-3-
B-0---0-0--0-0--0-0--0--0-0--0---0-0--0-0--0-0--0--0-0--2---2-2--2-2--2-2--2--2-2--3---3-3--3-3--3-3--3--3-3-
G-0---0-0--0-0--0-0--0--0-0--2---2-2--2-2--2-2--2--2-2--3---3-3--3-3--3-3--3--3-3--4---4-4--4-4--4-4--4--4-4-
D-2---2-2--2-2--2-2--2--2-2--1---1-1--1-1--1-1--1--1-1--2---2-2--2-2--2-2--2--2-2--5---5-5--5-5--5-5--5--5-5-
A-2---2-2--2-2--2-2--2--2-2--2---2-2--2-2--2-2--2--2-2--4---4-4--4-4--4-4--4--4-4--5---5-5--5-5--5-5--5--5-5-
E-0---0-0--0-0--0-0--0--0-0--0---0-0--0-0--0-0--0--0-0--2---2-2--2-2--2-2--2--2-2--3---3-3--3-3--3-3--3--3-3-

Solo
[ Tab from: http://www.guitartabs.cc/tabs/l/larlee_reuben/el_cielo_vacio_tab.html ]
e---3-----3---------3-----3---------2-----2---------2-----2---------0-----0---------0-----0---------2-----2---------2-----2h3-2-----
B-----0-----0---0-----0-----0---0-----0-----0---0-----0-----0---0-----1-----1---1-----1-----1---1-----3-----3---3-----3---------3---
G-------0---------------0---------------0---------------0---------------0---------------0---------------2-------------------------2-
D-2-----------2---2-----------2-----------------------------------4-----------4---4-----------4---0-----------0---0-----0-----------
A---------------------------------3-----------3---3-----------3---------------------------------------------------------------------
E-----------------------------------------------------------------------------------------------------------------------------------

e---3-----3---------3-----3---------2-----2---------2-----2---------0-----0---------0-----0---------3-----3---------3-----3-------
B-----0-----0---0-----0-----0---0-----0-----0---0-----0-----0---0-----1-----1---1-----1-----1---1-----0-----0---0-----0-----0---0-
G-------0---------------0---------------2---------------2---------------0---------------0---------------0---------------0---------
D-2-----------2---2-----------2-----------------------------------4-----------4---4-----------4---2-----------2---2-----------2---
A---------------------------------3-----------3---3-----------3-------------------------------------------------------------------
E---------------------------------------------------------------------------------------------------------------------------------

e---5-----5---------5-----5---------7-----7---------7-----7---------8-----8---------8-----8---------5-----5---------5-----5-------
B-----0-----0---0-----0-----0---0-----5-----5---5-----5-----5---5-----5-----5---5-----5-----5---5-----7-----7---7-----7-----7---7-
G-------2---------------2---------------5---------------5---------------5---------------5---------------8---------------8---------
D-4-----------4---4-----------4---5-----------5---5-----------5---7-----------7---7-----------7---9-----------9---9-----------9---
A---------------------------------------------------------------------------------------------------------------------------------
E---------------------------------------------------------------------------------------------------------------------------------

e---3-----3---------3-----3---------2-----2---------2-----2-----------------------------------------------------------------------
B-----0-----0---------0-----0---------0-----0---------0-----0-------1-----1---------1-----1---------0-----0---------0-----0-------
G-------0-------0-------0-------0-------0-------0-------0-------0-----0-----0---0-----0-----0---0-----0-----0---0-----0-----0---0-
D-2-----------2---2-----------2---0-----------0---0-----------0---------2---------------2---------------2---------------0---------
A-----------------------------------------------------------------3-----------3---3-----------3---2-----------2---2-----------2---
E---------------------------------------------------------------------------------------------------------------------------------

Playing order
(Intro 1 x2)-(Intro 2)-(Verse x8)-(Chorus x4)-(verse x8)-(chorus x8)-(solo)-(verse x4)-(Intro 1 x2)-(Intro 2)
Comments