Larlee Reuben - Disbelief Chords & Tabs

 

Disbelief Chords & Tabs

Larlee Reuben Chords & Tabs

Version: 1 Type: Tab 1 rating
1 star 2 stars 3 stars 4 stars 5 stars
comments

Disbelief Tab

   
                                                    verse 1
e--------------------------------------------------------------------------------------------------------
B--------------------------------------------------------------------------------------------------------
G--------------------------------------------------------------------------------------------------------
D------11-9---------------------11-9---------------------11h12h11-9---------------------9----------------
A----9------10-9-9-10-9-0-----9------10-9-9-10-9-0-----9------------10-9-9-10-9-0-----9---9-10-9-9-10-9-0
D9-9----------------------9-9----------------------9-9----------------------------9-9--------------------
[ Tab from: http://www.guitartabs.cc/tabs/l/larlee_reuben/disbelief_tab.html ]
                                                     verse 2
e--------------------------------------------------------------------------------------------------------
B--------------------------------------------------------------------------------------------------------
G--------------------------------------------------------------------------------------------------------
D------11-9---------------------11h12h11-9---------------------9-----------------------9-----------------
A----9------10-9-9-10-9-0-----9------------10-9-9-10-9-0-----9---9-10-9-9-10-9-0-----9---9-10-9-9-10-9-0-
D9-9----------------------9-9----------------------------9-9---------------------9-9---------------------

                              Chorus 3                                end
e------------------------------------------------------------         e--
B------------------------------------------------------------         B--
G------------------------------------------------------------         G--
D9-99-99-999-12-12-12-12-12-12-12-12-7-77-77-777-5-55-44-577-         D-9
A9-99-99-999-12-12-12-12-12-12-12-12-7-77-77-777-5-55-44-577-         A-9
D9-99-99-999-12-12-12-12-12-12-12-12-7-77-77-777-5-55-44-577-         D-9

                   Solo
e--------------------------------------------------
B--------------------------------------------------
G--------------------------------------------------
D---^----------^-----------------------------------
A-9-9-10-9-7-9-9-10-9-5-7-7h9h7-9-7-5-7-7h9h7-9-7-5 
D-9--------7-9--------5-7-----------5-7-----------5


Verse 1
verse 2
Chorus x2
verse 1
verse 2
chorus x2
solo 
chorus x2
verse 1
verse 2
end

Have fun Jakob
Comments