Larlee Reuben - At The Edge Chords & Tabs

 

At The Edge Chords & Tabs

Larlee Reuben Chords & Tabs

Version: 1 Type: Tab 0 ratings
1 star 2 stars 3 stars 4 stars 5 stars
comments

At The Edge Tab

   
*(as a side note-Guitar 1 is in dropped-D tuning and Guitar 2 and Bass are standard)



/ = slide
p = pull
h = hammer
^ = bend

GUITAR 1
Verse 1

e--------------------------------------------------------------------
B--------------------------------------------------------------------
G----------------------------------------------------5-5-5-5---------
D-7-7-7-7-7-7-7-7--3-3-3-3-2-2-2-2--7-7-7-7-7-7-7-7--5-5-5-5-5-5-5-5-
A-7-7-7-7-7-7-7-7--3-3-3-3-2-2-2-2--7-7-7-7-7-7-7-7--3-3-3-3-5-5-5-5-
D-7-7-7-7-7-7-7-7--3-3-3-3-2-2-2-2--7-7-7-7-7-7-7-7----------5-5-5-5-

Verse 2

e-------------------------------------------------------------------
B-------------------------------------------------------------------
G-------------------------------------------------------------------
D-------------------------------------------------------------------
A---5-8-5---5-8-5---5-8-5---5-8-5---5-7-5---5-7-5---5-7-5---5-7-5---
D-7-------7-------7-------7-------6-------6-------5-------5---------

Chorus

e-------------------------------------
B-------------------------------------
G-------------------------------------
D-7-7-7-7-3-3-3-3-5-5-5-5-10-10-10-10-
A-7-7-7-7-3-3-3-3-5-5-5-5-10-10-10-10-
D-7-7-7-7-3-3-3-3-5-5-5-5-10-10-10-10-

GUITAR 2
Verse 1

e--------------------------------------------------------------------
B--------------------------------------------------------------------
G----------------------------------------------------5-5-5-5---------
D-7-7-7-7-7-7-7-7--3-3-3-3-2-2-2-2--7-7-7-7-7-7-7-7--5-5-5-5-5-5-5-5-
A-7-7-7-7-7-7-7-7--3-3-3-3-2-2-2-2--7-7-7-7-7-7-7-7--3-3-3-3-5-5-5-5-
E-5-5-5-5-5-5-5-5--1-1-1-1-0-0-0-0--5-5-5-5-5-5-5-5----------3-3-3-3-

Verse 2


e-12p5h8-12p5h8-12p5h8-12p5h8-12p5h8-12p5h8-12p5h8-12p5h8-11p5h7-11p5h7-11p5h7-11p5h7-10p5h7-10p5h7-10p5h7-10p5h7-
B-----------------------------------------------------------------------------------------------------------------
G-----------------------------------------------------------------------------------------------------------------
D-----------------------------------------------------------------------------------------------------------------
A-----------------------------------------------------------------------------------------------------------------
E-----------------------------------------------------------------------------------------------------------------

Solo
[ Tab from: http://www.guitartabs.cc/tabs/l/larlee_reuben/at_the_edge_tab.html ]
e---------------------------------------------------------------------------------------------------------------------------------
B------------^-------8------------------------------------------------------------------------------------------------------------
G--------5-7-7-5--7/9---9-7-5-----------5-7-7-2-2h5p2-0------------------------------------------------------------------^--------
D-7--5-7-----------------------5-/7-5-7-----------------2-0----------7-6-5------------------5-7-10-9-10-12-9-------10-12-12-10----
A-----------------------------------------------------------3-0-3/5--------7-6-5--------5-7------------------12-10-------------12-
E--------------------------------------------------------------------------------8--5-8-------------------------------------------

e-17-15----------------------------------------------------------------------------------------------------18-20-21-20-18---------
B-------17-16-15---------------------------------------------------------------------------18-----20-18-20----------------20-20---
G----------------17------------------------------------------------------^-----------17-19----19----------------------------------
D--------------------11-12-12h14p12-------------------15-----------15-17-17-15-17/19----------------------------------------------
A-----------------------------------14-12-10-12-15-17-----17-15-17----------------------------------------------------------------
E---------------------------------------------------------------------------------------------------------------------------------

Outro

e-----------------------
B-----------------------
G-----7-8-7-5--7-5------
D-/7---------------5-/7- 
A-----------------------
E-----------------------

BASS
Verse

G---------------------------------
D---------------------------------
A-----------------5-5-5-3-3-------
E-5-5-5-5-5-5-5-5-----------2-3-4-

Follow

G-----------------------------
D-----------------------------
A-----7------7------3------2--
E-5-5--5-5-5--5-1-1--1-0-0--0-

Chorus

G---------------------------------
D-----------------5-5-5-5---------
A-3-3-3-3-5-5-5-5---------7-7-7-7-
E---------------------------------


...and this is the playing order...

G1-(pause   )-(verse1 x2)-(verse1 x4)-(chorus x4)-(verse2 x2)-(Verse1 x6)-(chorus x4)-(verse1 x6)-end
G2-(pause   )-(verse2 x2)-(  pause  )-(  pause  )-(Verse1 x2)-(  solo   )-(  pause  )-(verse2 x6)-(outro)-end
B -(verse x2)-(Verse  x2)-( verse x4)-(chorus x4)-(  pause  )-(follow x6)-(chorus x8)-(verse  x6)-end


Comments