Larc En Ciel - Ready Steady Go Chords & Tabs

 

Ready Steady Go Chords & Tabs

Larc En Ciel Chords & Tabs

Version: 1 Type: Bass Tab 0 ratings
1 star 2 stars 3 stars 4 stars 5 stars
comments

Ready Steady Go Bass Tab

Intro (the bass starts at 0.08)
G|--------------------------|--------------------------|--------------------------|--------------------------|
D|--------------------------|--------------------------|--------------------------|--------------------------|
A|--------------------------|--------------------------|--------------------------|--------------------------|
E|--4--4--4--4--4--4--4--4--|--4--4--4--4--4--4--4--4--|--2--2--2--2--2--2--2--2--|--2--2--2--2--2--2--2--2--|

G|--------------------------|--------------------------|--------------------------|--------------------------|
D|--------------------------|--------------------------|--------------------------|--------------------------|
A|--------------------------|--------------------------|--------------------------|--------------------------|
E|--1--1--1--1--1--1--1--1--|--1--1--1--1--1--1--1--1--|--0--0--0--0--0--0--0--0--|--2--2--2--2--2----/16\---|

G|--------------------------|--------------------------|--------------------------|--------------------------|
D|--------------------------|--------------------------|--------------------------|--------------------------|
A|--------------------------|--------------------------|--------------------------|--------------------------|
E|--4--4--4--4--4--4--4--4--|--4--4--4--4--4--4--4--4--|--2--2--2--2--2--2--2--2--|--2--2--2--2--2--2--2--2--|

G|--------------------------|--------------------------|--------------------------|--------------------------|
D|--------------------------|--------------------------|--------------------------|--------------------------|
A|--4--4--4--4--4--4--4--4--|--4--4--4--4--4--4--4--4--|--6--6--6--6--6--6--6--6--|--6--6--6-----------------|
E|--------------------------|--------------------------|--------------------------|-----------0--2--2--3-----|

Verses Part
G|--------------------------|--------------------------|--------------------------|--------------5-----------|
D|--------------------------|----/6--6--6--8--6--5-----|--------------------------|----/6--6--6-----6--5-----|
A|--------------------------|-----------------------6\-|--------------------------|-----------------------6\-|
E|--4--4--4--4--4--4--4--4--|--4-----------------------|--2--2--2--2--2--2--2--2--|--2-----------------------|

G|--------------------------|--------------------------|--------------------------|--------------------------|
D|--------------------------|--------------------------|--------------------------|--------------------------|
A|--4--4--4--4--4--4--4--4--|--4--4--4--4--4--4--4--4--|--6--6--6--6--6--6--6--6--|--6--6--4--4--3--3--------|
E|--------------------------|--------------------------|--------------------------|--------------------6--6--|

G|--------------------------|--------------------------|--------------------------|--------------5-----------|
D|--------------------------|----/6--6--6--8--6--5-----|--------------------------|----/6--6--6-----6--5-----|
A|--------------------------|-----------------------6\-|--------------------------|-----------------------6\-|
E|--4--4--4--4--4--4--4--4--|--4-----------------------|--2--2--2--2--2--2--2--2--|--2-----------------------|

G|--------------------------|--------------------------|--------------------------|--------------------------|
D|--------------------------|--------------------------|--------------------------|--------------------------|
A|--------------------------|--------------------------|--6--6--6--6--6--6--6-/6--|--------------------------|
E|--6--6--6--6--6--6--6--6--|--6--6--6--6--6--6--6--6--|--------------------------|--2-------3-------4-------|

Chorus 1
G|--------------------------|--------------------------|--------------------------|--------------------------|
D|--------------------------|--------------------------|--------------------------|--------------------------|
A|--4--4--4--4--4--4--4--4--|--4--4--4--4--4--4--4--4--|--3--3--3--3--3--3--3--3--|-----------1--1-----------|
E|--------------------------|--------------------------|--------------------------|--1--3--3--------4/--\----|

G|--------------------------|--------------------------|--------------------------|--------------------------|
D|--------------------------|--------------------------|--------------------------|--------------------------|
A|--4--4--4--4--4--4--4--4--|--6--6--6--6--6--6--6--6--|--------------------------|--6-------3---------------|
E|--------------------------|--------------------------|--4--4--4--4--4--4--4--4--|-------------------4------|

G|--------------------------|--------------------------|--------------------------|--------------------------|
D|--------------------------|--------------------------|-----------------5--------|--------------------------|
A|--4--4--4--4--4--4--4--4--|--4--4--4--4--6--4-----6--|--3--3--3-----3-----3-----|-----------1--3--1--/6\---|
E|--------------------------|--------------------------|-----------3--------------|--1--3--4-----------------|

G|--------------------------|--------------------------|--------------------------|--------------------------|
D|--------------------------|--------------------------|--------------------------|--------------------------|
A|--------------------------|--6--6--6--6--6--6--6--6--|--------------------------|----11-11-11-11-11-11-11--|
E|--6--6--6--6--6--6--6--6--|--------------------------|--4--4--4--4--4--4--4--4--|--4/----------------------|
[ Tab from: http://www.guitartabs.cc/tabs/l/larc_en_ciel/ready_steady_go_btab.html ]
After Chorus 1 Part
G|--------------------------|--------------------------|--------------------------|--------------------------|
D|--------------------------|--------------------------|--------------------------|--------------------------|
A|--------------------------|--------------------------|--------------------------|----4---3-----------------|
E|4-4-4-4-4-4-4-4-4-4-4-4-4-|4-4-4-4-4-4-4-4-4-4-4-4-4-|4-4-4-4-4-4-4-4-4-4-4-4-4-|--4---4---4-6-------4--2--|

Verse 2 (just play the verses part)

Chorus 2
G|--------------------------|--------------------------|--------------------------|--------------------------|
D|--------------------------|--------------------------|-------------/5-----------|--------------------------|
A|--4--4--4--4--4--4--4-----|--4--4--4--4--6--4-----6--|--3--------3-----3--------|--------------------------|
E|-----------------------4--|--------------------------|-----3--3--------------1--|--1--3--3--4--4--6/--\----|

G|--------------------------|--------------------------|--------------------------|--------------------------|
D|--------------------------|--------------------------|--------------------------|--------------------------|
A|--4--4--4--4--4--4--4--4--|--6--6--6--6--6--6--6--6--|--------------------------|--6-------3---------------|
E|--------------------------|--------------------------|--4--4--4--4--4--4--4--4--|-------------------4------|

G|--------------------------|--------------------------|--------------------5--5--|--------------------------|
D|--------------------------|--------------------------|-------------/3--5--------|-----------------3--------|
A|--4--4--4--4--4--4--4-----|--4--4--4-----6--4--------|--6--3--3--3--------------|--------------------6-----|
E|-----------------------4--|-----------4--------------|--------------------------|--1--1--3--3--4--------4--|

G|--------------------------|--------------------------|--------------------------|--------------------------|
D|--------------------------|-----------13-------------|--------------------------|--------------------------|
A|--------------------------|--6--6--6-/---------------|--------------------------|----11-11-11-11-11-11-11--|
E|--6--6--6--6--6--6--6--6--|--------------------------|--4--4--4--4--4--4--4--4--|--4/----------------------|

Bridge
G|--------------------------|--------------------------|--------------------------|--------------------------|
D|--------------------------|--------------------------|--------------------------|--------------------------|
A|--------------------------|--------------------------|--------------------------|--------------------------|
E|--4--4--4--4--4--4--4--4--|--4--4--4--4--4--4--4--4--|--2--2--2--2--2--2--2--2--|--2--2--2--2--2--2--2--2--|

G|--------------------------|--------------------------|--------------------------|--------------------------|
D|--------------------------|--------------------------|--------------------------|-----------------4--------|
A|--------------------------|--------------------------|--------------------------|-----------4--------4-----|
E|--1--1--1--1--1--1--1--1--|--1--1--1--1--1--1--1--1--|--0--0--0--0--0--0--0--0--|--2--------------------2--|

G|--------------------------|--------------------------|--------------------------|--------------------------|
D|--------------------------|--------------------------|--------------------------|--------------------------|
A|--------------------------|--------------------------|--------------------------|--------------------------|
E|--4--4--4--4--4--4--4--4--|--4--4--4--4--4--4--4--4--|--2--2--2--2--2--2--2--2--|--2--2--2--2--2--2--2--2--|

G|--------------------------|--------------------------|--------------------------|--------------------------|
D|--------------------------|--------------------------|--------------------------|--------------------------|
A|--------------------------|--------------------------|--------------------------|--------------------------|
E|--1--1--1--1--1--1--1--1--|--1--1--1--1--1--1--1--1--|--0--0--0--0--0--0--0--0--|--2-------3-------4-------|

Chorus 3
G|--------------------------|--------------------------|--------------------------|--------------------------|
D|--------------------------|--------------------------|-------------/5-----------|--------------------------|
A|--4--4--4--4--4--4--4--4--|--4-----------6--4-----6--|--3--------3-----3--------|--------------------------|
E|--------------------------|-----4--3--4--------------|-----3--3--------------1--|--1--3--3--4--4--6/--\----|

G|--------------------------|--------------------------|--------------------------|--------------------------|
D|--------------------------|--------------------------|--------------------------|--------------------------|
A|--4--4--4--4--4--4--4--4--|--6--6--6--6--6--6--6--6--|--------------------------|--6-------3---------------|
E|--------------------------|--------------------------|--4--4--4--4--4--4--4--4--|-------------------4------|

G|--------------------------|--------------------------|--------------------------|--------------------------|
D|--------------------------|--------------------------|-------/5--5--------------|-----------------3--------|
A|--4--4--4--4--4--4--4-----|--4--4--6--6--4--4-----6--|--3--3--------3--3-----5--|--------------------6-----|
E|-----------------------4--|--------------------------|--------------------------|--1--1--3--3--4--------4--|

G|--------------------------|--------------------------|--------------------------|--------------------------|
D|--------------------------|--------------------------|--------------------------|--------------------------|
A|--------------------------|--6--6--6--6--6--6--6--6--|--------------------------|-11-11-11-11-11-11-11-11--|
E|--6--6--6--6--6--6--6--6--|--------------------------|--4--4--4--4--4--4--4--4--|--------------------------|

Outro
			  X2			     X4
G|--------------------------|--------------------------|
D|--------------------------|--------------------------|
A|-10-11-11-11-10-11-11-11--|--------------------------|
E|--------------------------|4-4-4-4-4-4-4-4-4-4-4-4-4-|
Comments