Larc En Ciel - Lover Boy Chords & Tabs

 

Lover Boy Chords & Tabs

Larc En Ciel Chords & Tabs

Version: 1 Type: Tab 0 ratings
1 star 2 stars 3 stars 4 stars 5 stars
comments

Lover Boy Tab

Intro
Guitar
--------------------------------------------------------|
--------------------------------------------------------|
-------------------4---44--4----------------------------|
--------12----12---4---44--4-----9---9------------------|
--------10----10---2-2222222-----7---7------------------|
----000---000------------------88-888--8-5-54545--------|

Bass
--------------------------------------------------------|
--------------------------------------------------------|
----------------222222222222----2---2-------------------|
---00000000000----------------33--33-3--55545-5b7h5-----|

--------------------------------------------------------|
--------------------------------2---2----2---2-0--------|
----------------2222222222222-33--33--333--33----23-----|
---00000000000-------------------------------------45---|

Verse

Guitar
--------------------------------------------------------|
--------------------------------------------------------|
-------------------4---44--4----------------------------|
--------12----12---4---44--4-----9---9------------------|
--------10----10---2-2222222-----7---7------------------|
----000---000------------------88-888--8-5-54545--------|
[ Tab from: http://www.guitartabs.cc/tabs/l/larc_en_ciel/lover_boy_tab.html ]
This is before the interlude before the chorus
----------------------------------------3-3-5---7-------|
----------------------------------------5-5-5---7-------|
-------------------4---44--4------------4-4-4---8-------|
--------12----12---4---44--4-----9---9------------------|
--------10----10---2-2222222-----7---7------------------|
----000---000------------------88-888-------------------|


BASS
Interlude before the chorus
---------------------------------------------------------|
---------------------------------------------------------|
---------------------------------------------------------|
---5-345345345345345--2--2/------------------------------|

Guitar
This part is after de first chorus
--------------------------|
--------------------------|
--------------------------|
------12-----12-----------|        X2
------10-----10---9-9-----|
--000----000------7-7-----|

Then the guitar does the verse again an the chorus


After the chorus
Guitar:
----4----------------------------------------------------|
----5----------------------------------------------------|
----4----------------------------------------------------|
---------------------------------------------------------|
---------------------------------------------------------|
---------------------------------------------------------|

I donīt know the bass part before this bass "solo"

Bass "solo"
---------------------------------------------------------|
------------------------------4--4-4---2--2-2------------|
------2---2--2-22-5-22-5-25-55-55-5--33-33-3-------------|
----00--00-0---------------------------------------------|
Comments