Larc En Ciel - Acoustic Alchemy Chords & Tabs

 

Acoustic Alchemy Chords & Tabs

Larc En Ciel Chords & Tabs

Version: 1 Type: Tab 0 ratings
1 star 2 stars 3 stars 4 stars 5 stars
comments

Acoustic Alchemy Tab

Song: Acoustic Alchemy

Tabbed by: Mike Montgomery
email: montymike@gmail.com

IMPORTANT:

This tab is mainly the LEAD TAB, which will allow you to play along with the 
song. I have tabbed out the backing intro, but none of the rest, simply 
because I do not have time.

There may be three guitars in this song, I'm not sure, but don't be concerned 
if the lead doesn't sound riht by itself, as the other guitar(s) fills a lot 
in. Only after listening to the song very closely did this become apparent to 
me. I'm positive this tab is very accurate.

r = let ring
/ = slide
h = apply hammer
p = pull off


Backing Guitar:
Intro only:

e|--------------------------------------0-----------------1-----------------0--------------|
B|--1-----------------3--------------------------------------------------------------------|
G|--2-----------------2-----------------2-----------------2-----------------2--------------|
D|-----------------------------------------------------------------------------------------|
A|-----------------------------------------------------------------------------------------|
E|--0--0-0-0-0-0-0-0--0--0-0-0-0-0-0-0--0--0-0-0-0-0-0-0--0--0-0-0-0-0-0-0--0--0-0-0-0-0-0-|

e|-----------------------------------------------------------|
B|-----------------------------------------------------------|
G|-----2-----------------2-----------------1-----------------|
D|-----------------------2-----------------2-----------------|
A|-----------------------------------------------------------|
E|--0--0--0-0-0-0-0-0-0--0--0-0-0-0-0-0-0--0--0-0-0-0-0-0-0--|


Lead Guitar:
Lead Part A:

e|----------------------------------|------------------------------------|-----------------|
B|---17--15--13--15r------12--13r---|--15/17--15--13--15r------12--13r---|--9--10--12--13--|
G|----------------------------------|------------------------------------|-----------------|
D|----------------------------------|------------------------------------|-----------------|
A|----------------------------------|------------------------------------|-----------------|
E|----------------------------------|------------------------------------|-----------------|

e|--15--13--12--10--13--12-----------12r----12-------------------12-12---------------------|
B|--------------------------12---13------------15--13--12--13-----------15--13--15r----12--|
G|-----------------------------------------------------------------------------------------|
D|-----------------------------------------------------------------------------------------|
A|-----------------------------------------------------------------------------------------|
E|-----------------------------------------------------------------------------------------|

e|--------|---------------------------------|------------------------------------|---------|
B|--13r---|---17--15--13--15r------12--13r--|--15/17--15--13--15r------12--13r---|--9--10--|
G|--------|---------------------------------|------------------------------------|---------|
D|--------|---------------------------------|------------------------------------|---------|
A|--------|---------------------------------|------------------------------------|---------|
E|--------|---------------------------------|------------------------------------|---------|

e|----------15--13--12--10--13--12-----------12r----12-------------------12-12-------------|
B|--12--13--------------------------12---13------------15--13--12--13-----------15--13--15r|
G|-----------------------------------------------------------------------------------------|
D|-----------------------------------------------------------------------------------------|
A|-----------------------------------------------------------------------------------------|
E|-----------------------------------------------------------------------------------------|
[ Tab from: http://www.guitartabs.cc/tabs/l/larc_en_ciel/acoustic_alchemy_tab.html ]
e|--------------|-------------------------------------------------------------12------15---|
B|----12---13r--|--9--10--12--10r------9--10--12h13p12--10r------12--13--15----------------|
G|--------------|--------------------------------------------------------------------------|
D|--------------|--------------------------------------------------------------------------|
A|--------------|--------------------------------------------------------------------------|
E|--------------|--------------------------------------------------------------------------|

e|--10--13--13p12---10--8---8-10-12--8--10--10--7r----7-8-10--12--8--7--5r----5-7-8--5--11-|
B|-----------------------------------------------------------------------------------------|
G|-----------------------------------------------------------------------------------------|
D|-----------------------------------------------------------------------------------------|
A|-----------------------------------------------------------------------------------------|
E|-----------------------------------------------------------------------------------------|

e|--8--7r----7-8-11--8--|
B|----------------------|
G|----------------------|
D|----------------------|
A|----------------------|
E|----------------------|


Lead Part B:

e|------15----15----15----15-----15----15-----15----15-----14----14----14----14-----14-----|
B|---12----12----12----12-----13----13-----13----13-----10----10----10----10-----12----12--|
G|-----------------------------------------------------------------------------------------|
D|-----------------------------------------------------------------------------------------|
A|-----------------------------------------------------------------------------------------|
E|-----------------------------------------------------------------------------------------|

e|--14----14----14---|-----15----15----15----15-----15----15-----15----15-----14----14-----|
B|-----12----12------|--12----12----12----12-----13----13-----13----13-----10----10----10--|
G|-------------------|---------------------------------------------------------------------|
D|-------------------|---------------------------------------------------------------------|
A|-------------------|---------------------------------------------------------------------|
E|-------------------|---------------------------------------------------------------------|

e|--14----14-----14----14----14----14---|--------------------------------|-----------------|
B|-----10-----12----12----12----12------|--15--13--12--13r----12---10r---|--15--13--12--10-|
G|--------------------------------------|--------------------------------|-----------------|
D|--------------------------------------|--------------------------------|-----------------|
A|--------------------------------------|--------------------------------|-----------------|
E|--------------------------------------|--------------------------------|-----------------|

e|----------------------------------------------------------------|
B|--13--12-------------12r----10--8---------------------8----10r--|
G|----------11r----12----------------11---8--9----11--------------|
D|----------------------------------------------------------------|
A|----------------------------------------------------------------|
E|----------------------------------------------------------------|


:.INTERLUDE.:
(Others guitars continue, lead stops)


Lead Part C:

e|----------------------------------|------------------------------------|-----------------|
B|---/17--15--13--15r------12--13r---|--15/17--15--13--15r------12--13r---|--9--10--12--13-|
G|----------------------------------|------------------------------------|-----------------|
D|----------------------------------|------------------------------------|-----------------|
A|----------------------------------|------------------------------------|-----------------|
E|----------------------------------|------------------------------------|-----------------|

e|--15--13--12--10--13--12-----------12r----12-------------------12-12---------------------|
B|--------------------------12---13------------15--13--12--13-----------15--13--15r----12--|
G|-----------------------------------------------------------------------------------------|
D|-----------------------------------------------------------------------------------------|
A|-----------------------------------------------------------------------------------------|
E|-----------------------------------------------------------------------------------------|

e|--------|
B|--13r---|
G|--------|
D|--------|
A|--------|
E|--------|


If you have any queries please feel free to send me an email - montymike@gmail.com

Enjoy!
Comments