Langley Austin - I Dont Know Chords & Tabs

 

I Dont Know Chords & Tabs

Langley Austin Chords & Tabs

Version: 1 Type: Tab 0 ratings
1 star 2 stars 3 stars 4 stars 5 stars
comments

I Dont Know Tab

E-----------------------------------------------------------------
B---0--------------0---------------0--------------0---------------
G---------8--------------8---------------3--------------3---------
D------------9--------------9---------------4--------------4------
A------9--------------9---------------4--------------4------------
E-----------------------------------------------------------------
[ Tab from: http://www.guitartabs.cc/tabs/l/langley_austin/i_dont_know_tab.html ]

E-----------------------------------------------------------------
B---0-------------0--------------0-------------0------------------
G---------1-------------1--------------4-------------6------------
D------------2-------------2--------------5-------------7---------
A------2-------------2--------------5-------------7---------------
E-----------------------------------------------------------------
2x
Comments