Lambert Ash - Truth Chords & Tabs

 

Truth Chords & Tabs

Lambert Ash Chords & Tabs

Version: 1 Type: Tab 0 ratings
1 star 2 stars 3 stars 4 stars 5 stars
comments

Truth Tab

© TRUTH BY ASH LAMBERT
I wrote this myself, its just one of our songs maybe for our band but I thought I would post it on here anyway. It’s got a copyright so legally you can’t steal it anyway.
Any questions: email me at nirvana_child3@hotmail.com

Intro 1
--------------------------
--------------------------
--------------------------             x2
--------------------------
--------------------------
-0-0-0-9/8---0-0-0-9/8-9/8

Intro 2
--------------------------------
--------------------------------
--------------------------------
-9--------7------9--------7-----        x2
-9--x8----7-x8---9--x8----7-x8--
-7--------5------7--------5-----

Verse 1

Who knows what the truth is you wouldn’t know if she     lied
  -9-9-9-9-9-9-9-9  7-7-7-7-7-7-7-7         9-9-9-9-9-9-9-9-   7-7-7-7-7-7-7-7-
  -9-9-9-9-9-9-9-9  7-7-7-7—7-7-7-7         9-9-9-9-9-9-9-9-   7-7-7-7-7-7-7-7-
  -7-7-7-7-7-7-7-7  5-5-5-5-5-5-5-5         7-7-7-7-7-7-7-7-   5-5-5-5-5-5-5-5
You don’t         know her you         couldn’t if u     tried



*Intro 2*


Verse 2
[ Tab from: http://www.guitartabs.cc/tabs/l/lambert_ash/truth_tab.html ]
Lost within the   smoke of the 
  -9-9-9-9-9-9-9-9  7-7-7-7-7-7-7-7         
  -9-9-9-9-9-9-9-9  7-7-7-7—7-7-7-7         
  -7-7-7-7-7-7-7-7  5-5-5-5-5-5-5-5         
Burning world she’s in
-9-9-9-9-9-9-9-9      7-7-7-7-7-7-7-7         
-9-9-9-9-9-9-9-9      7-7-7-7—7-7-7-7         
-7-7-7-7-7-7-7-7      5-5-5-5-5-5-5-5         

The truth should be told 
  -9-9-9-9-9-9-9-9     7-7-7-7-7-7-7-7         
  -9-9-9-9-9-9-9-9     7-7-7-7—7-7-7-7         
  -7-7-7-7-7-7-7-7     5-5-5-5-5-5-5-5         
Of this frightful world of sin
-9-9-9-9-9-9-9-9              7-7-7-7-7-7-7-7         
-9-9-9-9-9-9-9-9              7-7-7-7—7-7-7-7         
-7-7-7-7-7-7-7-7              5-5-5-5-5-5-5-5         


Chorus
7-7-7-7-7-7-7-7-5-5-5-5-5-5-5-5-7-7-7-7-7-7-7-7-8-8-8-8-8-8-8-8
7-7-7-7-7-7-7-7-5-5-5-5-5-5-5-5-7-7-7-7-7-7-7-7-8-8-8-8-8-8-8-8
8-8-8-8-8-8-8-8-6-6-6-6-6-6-6-6-8-8-8-8-8-8-8-8-9-9-9-9-9-9-9-9
9-9-9-9-9-9-9-9-7-7-7-7-7-7-7-7-9-9-9-9-9-9-9-9-0-0-0-0-0-0-0-0
9-9-9-9-9-9-9-9-7-7-7-7-7-7-7-7-9-9-9-9-9-9-9-9—0-0-0-0-0-0-0-0
7-7-7-7-7-7-7-7-5-5-5-5-5-5-5-5-7-7-7-7-7-7-7-7-8-8-8-8-8-8-8-8
Behind that       man with      all those       powers
Stands a girl full of despise
He put her     down left        to              survive
No wonder she’s full of lies


verse 3

recoil her sense of bitterness to reflect the way she'd give
there's this life she has redeemed reconciled by why she lives

Repeat intro 1: 4x
 p.s just above at the chorus where the '0's are, they mean that 
it is on fret 10. its the last chord for the chorus so yea.
Comments