Lamb Of God - Ruin Chords & Tabs

 

Ruin Chords & Tabs

Lamb Of God Chords & Tabs

Version: 4 Type: Tab 0 ratings
1 star 2 stars 3 stars 4 stars 5 stars
comments

Ruin Tab

RUIN SOLO, LAMB OF GOD
E|-------------------------------------------------------------------|
B|--17b--------------------------------------------------------------|
G|------------------------------------11-12-11-----------------------|
D|---------------------11-12-11-12-14----------14-13-12-13-----------|
A|------------------14-----------------------------------------------|
D|-------------------------------------------------------------------|

E|-------------------------------------------------------------------|
B|------------------/13---12-13-12-----------------------------------|
G|--14b-14b-12---------------------11^~~~----------------------------|
D|-------------------------------------------------------------------|
A|-------------------------------------------------------------------|
D|-------------------------------------------------------------------|
[ Tab from: http://www.guitartabs.cc/tabs/l/lamb_of_god/ruin_tab_ver_4.html ]
E|--19-15----15-19-15-20-15-19-15-17-15------------------------------|
B|--------17---------------------------------------------------------|
G|-------------------------------------------------------------------|
D|-------------------------------------------------------------------|
A|-------------------------------------------------------------------|
D|-------------------------------------------------------------------|

E|--17-14----14-17-14-19-14-17-14-15-14------------------------------|
B|--------15---------------------------------------------------------|
G|-------------------------------------------------------------------|
D|-------------------------------------------------------------------| 2X
A|-------------------------------------------------------------------|
D|-------------------------------------------------------------------|

E|--15-14-11-13-12----12---------------------------------------------|
B|-----------------15----15-12-15-12-12---15~~~~~~-------------------|
G|-------------------------------------------------------------------|
D|-------------------------------------------------------------------|
A|-------------------------------------------------------------------|
D|-------------------------------------------------------------------|

AND THERE IT IS, RUIN SOLO ALL TABBED UP AND READY ROLL.
Comments