Lamb Of God - Ruin Chords & Tabs

 

Ruin Chords & Tabs

Lamb Of God Chords & Tabs

Version: 1 Type: Bass Tab 0 ratings
1 star 2 stars 3 stars 4 stars 5 stars
comments

Ruin Bass Tab

Lamb of God …quot; Ruin

Dropped D tuning

Intro

|-------------|
|-------------|
|-------5---6-|  x16
|-0-0-0---0---|

|---------------------------------|
|-------2-3-----2-3-----2-3-2---1-|
|-----------------------------3---| x2
|-2-2-2-----2-2-----2-2-----------|

|---------------------------------|
|-------3-4-----3-4-----3-4-3---2-|
|-----------------------------4---| x2
|-3-3-3-----3-3-----3-3-----------|

|-------------|
|-------------|
|-------5---6-| x16
|-0-0-0---0---|

(come in after ‘that seeking’)

|---------------------------------------------|
|---------------------------------5-4---3-2---|
|-------5---6-----5---6-----5-r-6-----5-----3-|
|-0-0-0---0---0-0---0---0-0-------------------|

|-----------------------------------------|
|-----------------------------------------|
|-------5---6-----5---6-5-4---3-2---1-0---| whole thing x3
|-0-0-0---0---0-0---0-------5-----3-----1-|

|-------------------------------------------------------|
|-------------------------------------------------------|
|-------------------------------------5-5-5-6-6-6-3-3-3-|
|-0-0-0----------0-0-0----------0-0-0-------------------|

|-------------------------------------------------------|
|-------------------------------------------------------|
|-------------------------------------5-5-5-6-6-6-3-2-2-|
|-0-0-0----------0-0-0----------0-0-0-------------------|

^^ whole thing x2 ^^


|---------------------------------------------|
|---------------------------------------------|
|-------5-5-------6-6-------5-5-5-6-6-6-3-3-3-|
|-0-0-0-----0-0-0-----0-0-0-------------------|

|---------------------------------------------|
|---------------------------------------------|
|-------5-5-------6-6-------5-5-5-6-6-6-3-2-2-|
|-0-0-0-----0-0-0-----0-0-0-------------------|

^^ whole thing x2 ^^
[ Tab from: http://www.guitartabs.cc/tabs/l/lamb_of_god/ruin_btab.html ]
|-------------------------------------------------|
|-------------------------------------------------|
|-------------------------------------------------| x4
|-1-0-0-0-0-0-2-0-0-0-0-0-3-0-0-0-0-0-0-0-0-0-0-0-|

|---------------------------------------------|
|---------------------------------5-4---3-2---|
|-------5---6-----5---6-----5-r-6-----5-----3-|
|-0-0-0---0---0-0---0---0-0-------------------|

|-----------------------------------------|
|-----------------------------------------|
|-------5---6-----5---6-5-4---3-2---1-0---| whole thing x2
|-0-0-0---0---0-0---0-------5-----3-----1-|

solo 1

|---------------------------------|
|-------2-3-----2-3-----2-3-2---1-|
|-----------------------------3---| x2
|-2-2-2-----2-2-----2-2-----------|

|---------------------------------|
|-------3-4-----3-4-----3-4-3---2-|
|-----------------------------4---| x2
|-3-3-3-----3-3-----3-3-----------|

after solo

|---------------------------------------------|
|---------------------------------------------|
|-------5-5-------6-6-------5-5-5-6-6-6-3-3-3-|
|-0-0-0-----0-0-0-----0-0-0-------------------|

|---------------------------------------------|
|---------------------------------------------|
|-------5-5-------6-6-------5-5-5-6-6-6-3-2-2-|
|-0-0-0-----0-0-0-----0-0-0-------------------|

^^ whole thing x2 ^^

breakdown part

|--------------------------------------------|
|--------------------------------------------|
|-----------------5/10-----------------6\3\2-| x4
|-0-0-000-0-000-0------0-0-000-0-000-0-------|

after randy’s ‘quack’

|--------------------------------------------|
|--------------------------------------------|
|-----------------5/10-----------------6\3\2-| x4
|-1p0-1p0-1p0-1p0------1p0-1p0-1p0-1p0-------|

outro

|-----------------------------------------------------------|
|-----------------------------------------------------------|
|-----------------5/6-6/10-----------------6\3-3\2----------| x4
|-0-0-0-0-0-0-0---------------0-0-0-0-0---------------0-0---|

|------------|
|------------|
|------------|
|-0-0-0--0-0-|
Comments