Lamb Of God - Remorse Is For The Dead Chords & Tabs

 

Remorse Is For The Dead Chords & Tabs

Lamb Of God Chords & Tabs

Version: 3 Type: Tab 0 ratings
1 star 2 stars 3 stars 4 stars 5 stars
comments

Remorse Is For The Dead Tab

   
Song: Remorse is for the Dead
Band: Lamb of God
Album: Ashes of the Wake
Label: Prosthethic Records 2004
Tabbed by: Conor666vyle    scurvy@eircom.net
This song is fuckin lethal and so easy to learn and sorry bout the hourglass tab I know its wrong.
Tuning: Dropped D
D,A,D,G,B,E

Intro:(Clean)
Guitar1:(Play under all of clean intro)
|-------------------------------------------|
|-------------------------------------------|
|-------------------------------------------|
|-------------------------------------------|
|-------------------------------------------|
|-7----7----8----5----7----0h3----5----2----|

Guitar2:
|-------------------------------------------------------------------------
|-------------------------------------------------------------------------
|-----2---2-------2---2-------3---3-------0---0-------2---2-------0---0---  
|---0---0---0---0---0---0---0---0---0---0---0---0---0---0---0---0---0---0-
|-0-----------0-----------0-----------0-----------0-----------0-----------
|-------------------------------------------------------------------------

-------------------------|
-------------------------|
-----2---2h3-----2---0---|
---0---0-------0---------|
-0-----------0-----0-----|
-------------------------|    x2

|-------------------------------------------------------|
|-------------------------------------------------------|
|-----2-----2-----3-----0-----2------------------2---0--|
|---0-----0-----0-----0-----0-----0-3---0-5----0--------|
|-0-----0-----0-----0-----0-----0-----0------0-----0----|
|-------------------------------------------------------|    x4

Guitar1&Guitar2:(1:17)
|--------------------------------------------------------------------|
|--------------------------------------------------------------------|
|--------------------------------------------------------------------|
|--------------------------------------------------------------------|
|-0-0-3-0-3-0-3h6-00-0-0-00-0-0-0000-0-0-3-0-3-0-3h6-0-6-5-0-3-2-0-2-|
|-0-0-3-0-3-0-3h6-00-0-0-00-0-0-0000-0-0-3-0-3-0-3h6-0-6-5-0-3-2-0-2-|  x4
pm. .   .   .     .. . . .. . . .... . .   .   .     .     .     .

|-------------------|
|-------------------|
|-3-------5---------|
|-3-------5---------|
|-1-------3---------|
|---0-0-0---0-0-0---|

|-----------------------------------------------------------
|-----------------------------------------------------------
|-----------------------------------------------------------
|-----------------------------------------------------------
|-------------------------------------0-0-0000-0-0-000-000-- Contd..
|-7-0-0-7-0-0-7-0-8-0-0-8-0-0-5-7-8-5-0-0-0000-0-0-000-000--
pm  . .   . .   .   . .   . .         . . .... . . ... ... 

--------------------------------------------------------------------|
--------------------------------------------------------------------|
--------------------------------------------------------------------|
--------------------------------------------------------------------|
-7-0-0-7-0-0-7-0-8-0-0-8-0-0-7h9-10-0-0-10-0-0-10-0-9-0-0-9-0-0-9-0-|
-7-0-0-7-0-0-7-0-8-0-0-8-0-0-7h9-10-0-0-10-0-0-10-0-9-0-0-9-0-0-9-0-|  x3
pm . .   . .   .   . .   . .        . .    . .    .   . .   . .   .

|--------------------------------------|
|--------------------------------------|
|--------------------------------------|
|--------------------------------------|
|-332-2-2-2-2-332-2-2-2-2-332-2-2-2-2--|
|-332-2-2-2-2-332-2-2-2-2-332-2-2-2-2--|    x4
pm... . . . . ... . . . . ... . . . .
[ Tab from: http://www.guitartabs.cc/tabs/l/lamb_of_god/remorse_is_for_the_dead_tab_ver_3.html ]
|--------------------------------------|
|--------------------------------------|
|--------------------------------------|
|--------------------------------------|
|-332-2-2-2-2-332-2-2-2-2-332-2-2-2-2--|
|-332-2-2-2-2-332-2-2-2-2-332-2-2-2-2--|    x4


|-----------------------------------------------------------
|-----------------------------------------------------------
|-----------------------------------------------------------
|-----------------------------------------------------------
|-------------------------------------0-0-0000-0-0-000-000-- Contd..
|-7-0-0-7-0-0-7-0-8-0-0-8-0-0-5-7-8-5-0-0-0000-0-0-000-000--
pm  . .   . .   .   . .   . .         . . .... . . ... ... 

--------------------------------------------------------------------|
--------------------------------------------------------------------|
--------------------------------------------------------------------|
--------------------------------------------------------------------|
-7-0-0-7-0-0-7-0-8-0-0-8-0-0-7h9-10-0-0-10-0-0-10-0-9-0-0-9-0-0-9-0-|
-7-0-0-7-0-0-7-0-8-0-0-8-0-0-7h9-10-0-0-10-0-0-10-0-9-0-0-9-0-0-9-0-|  x2
pm . .   . .   .   . .   . .        . .    . .    .   . .   . .   .


|--------------------------------------|
|--------------------------------------|
|--------------------------------------|
|--------------------------------------|
|-332-2-2-2-2-332-2-2-2-2-332-2-2-2-2--|
|-332-2-2-2-2-332-2-2-2-2-332-2-2-2-2--|    x4
pm... . . . . ... . . . . ... . . . .

|--------------------------------------|
|--------------------------------------|
|--------------------------------------|
|--------------------------------------|
|-332-2-2-2-2-332-2-2-2-2-332-2-2-2-2--|
|-332-2-2-2-2-332-2-2-2-2-332-2-2-2-2--|    x4

(3:23)
|--------------------------------------|
|--------------------------------------|
|--------------------------------------|
|--------------------------------------|
|-0-00-00-1-0-00-00-0--0--0--1-0-00-00-|
|-0-00-00-1-0-00-00-0--0--0--1-0-00-00-|    x12
pm. .. ..   . .. .. .  .  .    . .. ..

|-------------------------------------------------------------------|
|-------------------------------------------------------------------|
|-------------------------------------------------------------------|
|------------------3-2---2-1----------------------------------------|
|-00-00-1b--0--0-------0-------0-00-00-1-0-00-00-0--0--0--1-0-00-00-|
|-00-00-1b--0--0-------0-------0-00-00-1-0-00-00-0--0--0--1-0-00-00-|  x4
pm.. ..     .  .       .       . .. ..   . .. .. .  .  .    . .. ..  

|--------------------------------------|
|--------------------------------------|
|--------------------------------------|
|--------------------------------------|
|-0-00-00-1-0-00-00-0--0--0--1-0-00-00-|
|-0-00-00-1-0-00-00-0--0--0--1-0-00-00-|    x8
pm. .. ..   . .. .. .  .  .    . .. ..

Guitar2:(4:46)
|------------------------------------------------------------------------|
|------------------------------------------------------------------------|
|-9-7---10-7---12---9-7---10-7-7-9-(x3)9-7---10-7---12---9-7---10-10-9-7-|
|-----0------0----0-----0-----------------0------0----0-----0------------|
|------------------------------------------------------------------------|
|------------------------------------------------------------------------|

Guitar1: (5:01)
|--------------------------------------|
|--------------------------------------|
|--------------------------------------|
|--------------------------------------|
|-0-00-00-1-0-00-00-0--0--0--1-0-00-00-|
|-0-00-00-1-0-00-00-0--0--0--1-0-00-00-|    
pm. .. ..   . .. .. .  .  .    . .. ..

Guitar2:
|---------------------------------|
|---------------------------------|
9-7---10-7---12---9-7---10-10-9-7-|
|---0------0----0-----0-----------|
|---------------------------------|
|---------------------------------|

Any questions or comments e-mail me.
Check out www.vyle.co.nr for VYLE Shit!
Comments