Lamb Of God - Omerta Chords & Tabs

 

Omerta Chords & Tabs

Lamb Of God Chords & Tabs

Version: 4 Type: Tab

Omerta Tab

   
Band:Lamb of God
Album:Ashes of The Wake
Tabbed By: Sturc and KVX10 KING V
Tuning:Drop D

This is an amazing album, and if you don't like it then go listen to your
Greenday Cd you emo freak. 

pm.-Palm Mute
*-Pick Squeal
b-Bend String
p-Pull Off String

Intro

E-------------------------------------------------------------------------|
B-------------------------------------------------------------------------|
G-------------------------------------------------------------------------|
D-------------7----------------------6----------------------9-----------0-|
A-0-0-0--0--0-5-0--0--0--0-0-0--0--0-4-0--0--0--0-0-0--0--0-7-0--0--0---0-|
D-0-0-0--0--0---0--0--0--0-0-0--0--0---0--0--0--0-0-0--0--0---0--0--0---0-|
pm. . .  .  .   .  .  .  . . .  .  .   .  .  .  . . .  .  .   .  .  .   .

(first ending)
E--------------------|
B--------------------|
G--------------------| Intro plus first ending 
D-8-----8-7-7-7------|         x4
A-8-0-0-8-7-7-0------|
D-8-0-0-8-7-7-7------|
pm  . .

(second ending)
E|----------------------|
G|----------------------|
B|----------------------| Intro plus second ending
D|---------------*12b---|          x4
A|---11-0-0-11-14-------|
D|------0-0-------------|
  pm    . .


 
E|-------------------------------------------|
B|-------------------------------------------|
G|-------------------------------------------|
D|-------------------------------------------|
A|---3-6-----3-6------3-6------3-6---3-6-----|
D|---3-6b----3-6b-----3-6b-----3-6b--3-6b----|
   pm.       .        .        .     .               

E|----------------------------|
B|----------------------------|
G|----------------------------|
D|----------------------------|
A|--3-----3-----3-----3---3---|
D|--3--0--3--0--3--0--3-0-3-0-|
  pm.     .     .     .   .

 
E|-------------------------------------------|
B|-------------------------------------------|
G|-------------------------------------------|
D|-------------------------------------------|
A|---3-6-----3-6------3-6------3-6---3-6-----|
D|---3-6b----3-6b-----3-6b-----3-6b--3-6b----|
   pm.       .        .        .     .  


Chorus

E-------------------------------------------------------------------------|
B-------------------------------------------------------------------------|
G-------------------------------------------------------------------------|
D-------------7----------------------6----------------------9-----------0-|
A-0-0-0--0--0-5-0--0--0--0-0-0--0--0-4-0--0--0--0-0-0--0--0-7-0--0--0---0-|
D-0-0-0--0--0---0--0--0--0-0-0--0--0---0--0--0--0-0-0--0--0---0--0--0---0-|
pm. . .  .  .   .  .  .  . . .  .  .   .  .  .  . . .  .  .   .  .  .   .

(first ending)
E--------------------|
B--------------------|
G--------------------| with chorus x2
D-8-----8-7-7-7------|         
A-8-0-0-8-7-7-0------|
D-8-0-0-8-7-7-7------|
pm  . .
[ Tab from: http://www.guitartabs.cc/tabs/l/lamb_of_god/omerta_tab_ver_4.html ]
(second ending)
E|----------------------|
G|----------------------|
B|----------------------| with chorus x2
D|---------------*12b---|          
A|---11-0-0-11-14-------|
D|------0-0-------------|
  pm    . .

E|-----------------------------------------|----------------------------|
B|-----------------------------------------|----------------------------|
G|-----------------------------------------|----------------------------|x2
D|-----------------------------------------|----------------------------|
A|-3-6-----3-6------3-6------3-6---3-6-----|--3-----3-----3-----3---3---|
D|-3-6b----3-6b-----3-6b-----3-6b--3-6b----|--3--0--3--0--3--0--3-0-3-0-|
 pm.       .        .        .     .          .     .     .     .   .


 double time riff
E|-------------------------------------------------------------------------|
B|-----------------------------------------------------------------------x8 
G|-------------------------------------------------------------------------|
D|-------------------------------------------------------------------------|
A|---------6-0-0-0-0-0-0-0-0-0-0-0-0-----------6-0-0-0-0-0-1-0-0-3-4-0-0-0-|
D|-6-3-0-3-6-0-0-0-0-0-0-0-0-0-0-0-0-0-6-3-0-3-6-0-0-0-0-0-1-0-0-3-4-0-0-0-|
 pm. . . .   . . . . . . . . . . . . . . . . .   . . . .     . .     . . .

 breakdown riff
E|--------------------------------------------------|
B|--------------------------------------------------|
G|--------------------------------------------------|
D|--------------------------------------------------|x4
A|---------0-0---------0-0------0-0-0--0--0-0-0------|
D|--6--8b--0-0--3--6b--0-0--5b-p0-0-0--0--0-0-0------|
         pm. .         . .      . . .  .  . . .

 breakdown riff
E|--------------------------------------------------|
B|--------------------------------------------------|
G|--------------------------------------------------|
D|--------------------------------------------------|x4
A|--6--8--0-0--3--6--0-0--5---0-0-0--0--0-0-0-------|
D|--6--8--0-0--3--6--0-0--5--p0-0-0--0--0-0-0-------|
        pm. .        . .      . . .  .  . . .


Outro (Heavy Palm Muting)

E-------------------------------------------|
B-------------------------------------------|
G-------7------------6-----------9----------|
D-0-0-0-7--0-0-0-0-0-6-0-0-0-0-0-9--0-0-0---|
A-0-0-0-5--0-0-0-0-0-4-0-0-0-0-0-7--0-0-0---|
D-0-0-0----0-0-0-0-0---0-0-0-0-0----0-0-0---|
pm. . .    . . . . .   . . . . .    . . .

(first ending of outro)
E--------------------|
B--------------------|
G--------------------| with outro x2
D-8-----8-7-7-7------|
A-8-0-0-8-7-7-0------|
D-8-0-0-8-7-7-7------|
pm  . .

(second ending of outro)
E|----------------------|
G|----------------------|
B|----------------------|
D|---------------*12b---| with outro x2
A|---11-0-0-11-14-------|
D|------0-0-------------|
  pm    . .

E|------------|
G|------------|
B|------------|
D|-0-0--------|
A|-0-0--------|
D|-0-0--------|
pm . .

The end.