Lamb Of God - Omerta Chords & Tabs

 

Omerta Chords & Tabs

Lamb Of God Chords & Tabs

Version: 1 Type: Tab 2 ratings
1 star 2 stars 3 stars 4 stars 5 stars
comments

Omerta Tab

Verse
|----------------------------------------------------------------------------|
|----------------------------------------------------------------------------|
|----------------------------------------------------------------------------|
|----------------------------------------------------------------------------|
|----------5-----------------4----------------7-------------------------------|
|-0-0-0-0-0--0-0-0-0-0-0--0-0--0-0-0-0-0-0-0-0--0-0-0-0-8-0-0-8-7-7-7---------|
  . . . . .  . . . . . .  . .  . . . . . . . .  . . . .   . .

|----------------------------------------------------------------------------|
|----------------------------------------------------------------------------|
|-------------------------------------------------------------(7)------------|
|-----------------------------------------------------6----6h9---------------|
|----------5----------------4----------------7-------------------------------|
|-0-0-0-0-0--0-0-0-0-0-0-0-0--0-0-0-0-0-0-0-0--0-0-0-0--0-0------------------|
  . . . . .  . . . . . . . .  . . . . . . . .  . . . .  . .   Repeat 4x

Chorus
|-------------------------------------------------------------------|
|-------------------------------------------------------------------|
|-------------------------------------------------------------------|
|-0--6-----6----0--6----6----0--6-----6----0--6--0--6---------------|
|-0--6-----6----0--6----6----0--6-----6----0--6--0--6---------------|
|-0--6-----6----0--6----6----0--6-----6----0--6--0--6---------------|
  .  ^     ^    .  ^    ^    .  ^     ^    .     .
|-------------------------------------------------------------------|
|-------------------------------------------------------------------|
|-------------------------------------------------------------------|
|-0--0-----0--0-----0--0-----0--0--0--0-----------------------------|
|-0--0-----0--0-----0--0-----0--0--0--0-----------------------------|
|-0--0-----0--0-----0--0-----0--0--0--0-----------------------------|
  .  ^     .  ^     .  ^     .     .
|-------------------------------------------------------------------|
|-------------------------------------------------------------------|
|-------------------------------------------------------------------|
|-0--6-----6----0--6----6----0--6-----6----0--6--0--6---------------|
|-0--6-----6----0--6----6----0--6-----6----0--6--0--6---------------|
|-0--6-----6----0--6----6----0--6-----6----0--6--0--6---------------|
  .  ^     ^    .  ^    ^    .  ^     ^    .     .


Verse
|----------------------------------------------------------------------------|
|----------------------------------------------------------------------------|
|----------------------------------------------------------------------------|
|----------------------------------------------------------------------------|
|----------5----------------4----------------7-------------------------------|
|-0-0-0-0-0--0-0-0-0-0-0-0-0--0-0-0-0-0-0-0-0--0-0-0-0-8-0-0-8-7-7-7---------|
  . . . . .  . . . . . . . .  . . . . . . . .  . . . .   . .  
|----------------------------------------------------------------------------|
|----------------------------------------------------------------------------|
|-------------------------------------------------------------(7)------------|
|-----------------------------------------------------6----6h9---------------|
|----------5----------------4----------------7-------------------------------|
|-0-0-0-0-0--0-0-0-0-0-0-0-0--0-0-0-0-0-0-0-0--0-0-0-0--0-0------------------|
  . . . . .  . . . . . . . .  . . . . . . . .  . . . .  . .  Repeat 2x
[ Tab from: http://www.guitartabs.cc/tabs/l/lamb_of_god/omerta_tab.html ]
Chorus
|-------------------------------------------------------------------|
|-------------------------------------------------------------------|
|-------------------------------------------------------------------|
|-0--6-----6----0--6----6----0--6-----6----0--6--0--6---------------|
|-0--6-----6----0--6----6----0--6-----6----0--6--0--6---------------|
|-0--6-----6----0--6----6----0--6-----6----0--6--0--6---------------|
  .  ^     ^    .  ^    ^    .  ^     ^    .     .
|-------------------------------------------------------------------|
|-------------------------------------------------------------------|
|-------------------------------------------------------------------|
|-0--0-----0--0-----0--0-----0--0--0--0-----------------------------|
|-0--0-----0--0-----0--0-----0--0--0--0-----------------------------|
|-0--0-----0--0-----0--0-----0--0--0--0-----------------------------|
  .  ^     .  ^     .  ^     .     .
|-------------------------------------------------------------------|
|-------------------------------------------------------------------|
|-------------------------------------------------------------------|
|-0--6-----6----0--6----6----0--6-----6----0--6--0--6---------------|
|-0--6-----6----0--6----6----0--6-----6----0--6--0--6---------------|
|-0--6-----6----0--6----6----0--6-----6----0--6--0--6---------------|
  .  ^     ^    .  ^    ^    .  ^     ^    .     .

Interlude
|-------------------------------------------------------------------------|
|-------------------------------------------------------------------------|
|-------------------------------------------------------------------------|
|----------------------------------6---------0-1-----3-4--------------6---|
|----------------------------------6---------0-1-----3-4--------------6---|
|-0-0-0-0-0-0-0-0-0-0-0-0-0-0-0000-6-0-0-0-0-0-1-0-0-3-4-0-0-0-0-0000-6---|
  . . . . . . . . . . . . . . ....   . . . .     . .     . . . . .... Repeat 6x

|-------------------------------------------------------------------------|
|-------------------------------------------------------------------------|
|-------------------------------------------------------------------------|
|----------------------------------6---------0-1-----3-4------------------|
|----------------------------------6---------0-1-----3-4------------------|
|-0-0-0-0-0-0-0-0-0-0-0-0-0-0-0000-6-0-0-0-0-0-1-0-0-3-4-0-0-0-0-0000-----|
  . . . . . . . . . . . . . . ....   . . . .     . .     . . . . ....
|-------------------------------------------------------------------------|
|-------------------------------------------------------------------------|
|-------------------------------------------------------------------------|
|-------------------------------------------------------------------------|
|-------------------------------------------------------------------------|
|-6-h8---3-h5---h5-0--0-0-0-0000------------------------------------------|
                     . . . ....  Repeat 4x

|-------------------------------------------------------------------------|
|-------------------------------------------------------------------------|
|-------------------------------------------------------------------------|
|-6--8---3--5----5-0--0-0-0-0000------------------------------------------|
|-6--8---3--5----5-0--0-0-0-0000------------------------------------------|
|-6-h8---3-h5---h5-0--0-0-0-0000------------------------------------------|
                      . . .  ....  Repeat 4x

Ending
|-------------------------------------------------------------------|
|-------------------------------------------------------------------|
|-------------------------------------------------------------------|
|-0-0-0---0-0-0-0-0---0-0-0-0-0---0-0-0---0-------------------------|
|-0-0-0-5-0-0-0-0-0-4-0-0-0-0-0-7-0-0-0---0-------------------------|
|-0-0-0---0-0-0-0-0---0-0-0-0-0---0-0-0-8-0-8-7-7-7-----------------|
  . . .   . . . . .   . . . . .   . . .   .
|-------------------------------------------------------------------|
|-------------------------------------------------------------------|
|----------------------------------------------(7)------------------|
|-0-0-0---0-0-0-0-0---0-0-0-0-0---0-0-0-6-0-6h9---------------------|
|-0-0-0-5-0-0-0-0-0-4-0-0-0-0-0-7-0-0-0---0-------------------------|
|-0-0-0---0-0-0-0-0---0-0-0-0-0---0-0-0---0-------------------------|
  . . .   . . . . .   . . . . .   . . .   .

|-------------------------------------------------------------------|
|-------------------------------------------------------------------|
|-------------------------------------------------------------------|
|-0-0-0---0-0-0-0-0---0-0-0-0-0---0-0-0---0-------------------------|
|-0-0-0-5-0-0-0-0-0-4-0-0-0-0-0-7-0-0-0---0-------------------------|
|-0-0-0---0-0-0-0-0---0-0-0-0-0---0-0-0-8-0-8-7-7-7-----------------|
  . . .   . . . . .   . . . . .   . . .   .
|-------------------------------------------------------------------|
|-------------------------------------------------------------------|
|----------------------------------------------(7)------------------|
|-0-0-0---0-0-0-0-0---0-0-0-0-0---0-0-0-6-0-6h9------0-0------------|
|-0-0-0-5-0-0-0-0-0-4-0-0-0-0-0-7-0-0-0---0----------0-0------------|
|-0-0-0---0-0-0-0-0---0-0-0-0-0---0-0-0---0----------0-0------------|
  . . .   . . . . .   . . . . .   . . .   .          . .
			
Comments