Lamb Of God - Omerta Chords & Tabs

 

Omerta Chords & Tabs

Lamb Of God Chords & Tabs

Version: 1 Type: Bass Tab 0 ratings
1 star 2 stars 3 stars 4 stars 5 stars
comments

Omerta Bass Tab

   
Tabbed By : Justin
e-mail: if u have any questions or comments plz emai me at Mrtinkertrain689@aol.com

Tuning: drop d
Riff 1 play 4x
G|---------------------------------------------------------------------------|
D|---------------------------------------------------------------------------|
A|----------5-----------------4---------------7---------------5--------------|
D|--000--00-----000--000--00----000--000--00----0000-8-00-8-7---7------------|

G|---------------------------------------------------------------------------|
D|--------------------------------------------6------6/10--------------------|
A|----------5-----------------4----------------------------10----------------|
D|--000--00-----000--000--00----000--000--00-----00--------------------------|
[ Tab from: http://www.guitartabs.cc/tabs/l/lamb_of_god/omerta_btab.html ]
riff 2 play 1x
G|---------------------------------------------------------------------------|
D|---------------------------------------------------------------------------|
A|---------------------------------------------------------------------------|
D|--3-6--3-6--3-6--3-6-3-6--3-0--3-0--3-0--3-0-3-0--3-6--3-6--3-6--3-6-3-6---|

then play riff 1 2x

then play riff 2 2x

riff 5 play 8x
G|---------------------------------------------------------------------------|
D|---------------------------------------------------------------------------|
A|---------------------------------------------------------------------------|
D|-0-0-0-0-6-0-0-0-0-0-0-0-0-0-0-0-0-0-0--0-0-0-0-6--0-0-0-0--0-1-0-0-3-4----|

riff 6 play 8x
G|---------------------------------------------------------------------------|
D|---------------------------------------------------------------------------|
A|---------------------------------------------------------------------------|
D|-6/9--0--3/6--0--6-0--0-0-0--0-0-0-0---------------------------------------|

then play riff 1 2x

| /  slide up
| \  slide down
| h  hammer-on
| p  pull-off
| ~  vibrato
| +  harmonic
| x  Mute note
Comments