Lamb Of God - Omerta 1 Chords & Tabs

 

Omerta 1 Chords & Tabs

Lamb Of God Chords & Tabs

Version: 1 Type: Tab 1 rating
1 star 2 stars 3 stars 4 stars 5 stars
comments

Omerta 1 Tab

tabber:nolan. 13. USA
song:omerta 
artist: lamb of god

i'm pretty sure this is almost perfect if not tell me
[ Tab from: http://www.guitartabs.cc/tabs/l/lamb_of_god/omerta_1_tab.html ]
intro riff
|----------------------------------------------------------------------------|
|----------------------------------------------------------------------------|
|----------------------------------------------------------------------------|
|----------------------------------------------------------------------------|
|----------5-----------------4----------------7-------------------------------|
|-0-0-0-0-0--0-0-0-0-0-0--0-0--0-0-0-0-0-0-0-0--0-0-0-0-8-0-0-8-7-7-7---------|
  . . . . .  . . . . . .  . .  . . . . . . . .  . . . .   . .

|----------------------------------------------------------------------------|
|----------------------------------------------------------------------------|
|-------------------------------------------------------------(7)------------|
|-----------------------------------------------------6----6h9---------------|
|----------5----------------4----------------7-------------------------------|
|-0-0-0-0-0--0-0-0-0-0-0-0-0--0-0-0-0-0-0-0-0--0-0-0-0--0-0------------------|
Comments