Lamb Of God - Odhgabfe Chords & Tabs

 

Odhgabfe Chords & Tabs

Lamb Of God Chords & Tabs

Version: 1 Type: Bass Tab 0 ratings
1 star 2 stars 3 stars 4 stars 5 stars
comments

Odhgabfe Bass Tab

   
-------------------------------------------------------------------------------
                              O.D.H.G.A.B.F.E.
        (Officer Dick Head Gets A Black Fucking Eye) - Lamb of God
-------------------------------------------------------------------------------

Tabbed By : KoRnKid89
E-mail: XblytheX89@aol.com

Tuning: DADG


  Riff 1:
G|------------------------------------------|
D|------------------------------------------|
A|---------5----6~---------0-3-5-5-3--------|
D|--0----0----0------0-3h5-----------5-3-0--|
  
  Riff 2:
G|------------------------------------------|
D|------------------------------------------|
A|---------5----3~--------------------------|
D|--0----0----0------0-5p3-0-4p2-0-2p3-2-0--|

  Interlude:
G|------------------------------------------|
D|------------------------------------------|
A|------------------------------------------|
D|--0--0--0---------------------------------|

  Riff 3:
G|--------------------|
D|--------------------|
A|--------------------|
D|--0-h5-5-p3-3-p2-2--|

  Riff 4:
G|--------------------------|
D|--------------------------|
A|--------------------------|
D|--0-h5-5-p3-3-p2-2-p0--0--|
[ Tab from: http://www.guitartabs.cc/tabs/l/lamb_of_god/odhgabfe_btab.html ]
  Riff 5:
G|-----------------------------------------------|
D|-----------------------------------------------|
A|-----------------------------------------------|
D|------------------------------0h3-3-2-2-2-1-0--|
  
  Riff 6:
G|-----------------------------------------------|
D|-----------------------------------------------|
A|-----------------------------------------------|
D|------------------------------0h3-3-2-2-2------|

  Riff 7:
G|-----------------------------------|
D|-----------------------------------|
A|-----------------------------------|
D|--0-2-3-4-4p3-0-2-3-3h4p3-0-0-1p0--|

  Riff 8:
G|------------------------|
D|------------------------|
A|------------------------|
D|--0-0-0-5~-----0-0-0-0--|

*NOTE: In Riffs 5 and 6, do not play with the rest of the band until the end of the
section; you should know when to enter.


Structure:

Riff 1 (x7)
Riff 2
Riff 1 (x3)
Riff 2 
Riff 1 (x3)
Riff 2 (x5)
Interlude
Riff 3 
Riff 4 (x3)
Riff 3
Riff 4 (x3)
Riff 3 
Riff 4 (x3)
Riff 3
Riff 5
Riff 6
Riff 4 (x3)
Riff 3
Riff 4 (x3)
Riff 3
Riff 7 (x20)
Riff 5
Riff 6 
Riff 1 (x7)
Riff 2 (x9)
Riff 8


| /  slide up
| \  slide down
| H  hammer-on
| p  pull-off
| ~  vibrato
| +  harmonic
| x  Mute note
===============================================================================
Comments